Song name
# A B C D E F G H I J K L M N O P Q R S T U V W X Y Z

Martin Lechowicz - Syndrom Dnia Drugiego tab

Martin Lechowicz
http://www.martinlechowicz.com/

Piosenka "Syndrom dnia drugiego"
Płyta "Kompletny brak profesjonalizmu"


Budowa piosenki:
Intro, Zwrotka 1, Intro, Zwrotka 2,... etc.


Wstęp/przygrywka (Intro)

e |-------0--------0---------------0--------0--------|
H |-------0--------0---------------0--------0--------|
G |----0-----0------------------0-----0--------------|  4x
D |--------------------------------------------------|
A |-------------------2h3p2--------------------2h3p2-|
E |-0-----------3------------0-----------3-----------|



Zwrotka (Verse)

    e           a            D
e |-------0-----------0------------3-----|------------|
H |-------0-----------1------------2-----|------------|
G |----0-----0-----2-----2------3-----3--|----0-----0-|  3x
D |--------------------------0-----------|------------|
A |-------------0------------------------|------------|
E |-0------------------------------------|-3-----2----|


    e           a            D   h
e |-------0-----------0------3---2-|
H |-------0-----------1------2---3-|
G |----0-----0-----2-----2---3---4-|
D |--------------------------0-----|
A |-------------0----------------2-|
E |-0------------------------------|



h:
e |-2-|
H |-3-|
G |-4-|
D |-4-|
A |-2-|
E |-2-|
Tap to rate this tab
 
# A B C D E F G H I J K L M N O P Q R S T U V W X Y Z