Song name
# A B C D E F G H I J K L M N O P Q R S T U V W X Y Z

Martin Odonnell - Halo Theme tab

Some distortions used as well as a whammy bar.
Sorry, but I haven't put down places where the whammy bar is used or hammer ons.
It is pretty obvious where they are if you listen to the song though.

----------------------------------------------------------------------------|
----------------------------------------------------------------------------|
--------------------2-------------------------------------------------------|
-2------------4-5-4---5-4----------2----------------------------------------|
----------------------------------------------------------------------------|
----------------------------------------------------------------------------|

----------------------------------------------------------------------------|
----2-3---2---2-------------------------------------------------------------|
--4---------2---4------------------------0-2----------0---------------------|
--------------------------------------0-2-------4---2---4-2-4---------------|
------------------------------------2-------------------------5-------2-----|
----------------------------------------------------------------------------|

-----------------------------------------------------------------------------|
-----------------------------------------------------------------------------|
-----------------------------------------------------------------------------|
-----------------------------------------------------------------------------|x2
----------7---------9----------10--------12---------12-10-9------------------|
----0-0-0-----0-0-0------0-0-0-----0-0-0------0-0-0--------------------------|

-----------------------------------------------------------------------------|
-----------------------------------------------------------------------------|
-----------------------------------------------------------------------------|
-----------------------------------------------------------------------------|x2
----------7---------9----------10---------10-9-7-----------------------------|
----0-0-0-----0-0-0------0-0-0------0-0-0------------------------------------|

----------------------------------------------------------------------------|
----------------------------------------------------------------------------|
----------------------------------------------------------------------------|
----------------------------------------------------------------------------|
-----------7-----------9---------10--------12--10-9-------------------------|
----0-0--0----0--0--0------0-0-0-----0-0-0----------------------------------|

----------------------------------------------------------------------------|
--12------12-14--15------12-15--14-12-------------12-14-12------------------|
--------------------------------------14----14-------------14---------------|
-----------------------------------------14----14--------------14-----------|
----------------------------------------------------------------------------|
----------------------------------------------------------------------------|

-------------------------2-3--5---------------------------------------------|
--12------14-15--17--17--------15-14-15-14-12-17-15-14-12-15-17--17---------|
----------------------------------------------------------------------------|
----------------------------------------------------------------------------|
----------------------------------------------------------------------------|
----------------------------------------------------------------------------|

--14-------17--17--17--14-17-15-17----------17-----------15-17--------------|
-----15----------------------------17-15--------15-17-19-------17-------17--|
--------16-------------------------------16--------------------------19-----|
----------------------------------------------------------------------------|
----------------------------------------------------------------------------|
----------------------------------------------------------------------------|

----------------------------------------------------------------------------|
-19--19-------17--19---20-19-17-19-17-15-14------15-15----17----------------|
----------------------------------------------------------------------------|
----------------------------------------------------------------------------|
----------------------------------------------------------------------------|
----------------------------------------------------------------------------|

----------------------------------------------------------------------------|
-17---------------17--19-----20-----20---------20----19--17--15-------------|
--------------------------------------------21------------------------------|
----------------------------------------------------------------16--14--12--|
----------------------------------------------------------------------------|
----------------------------------------------------------------------------|

----------------------------------------------15----13----15----13----15-17-|
-15--14--15--15--14--15-----------20-------------15----13----15----13-------|
-------------------------------19-------19-17-------------------------------|
----------------------------17-------17-------------------------------------|
----------------------------------------------------------------------------|
----------------------------------------------------------------------------|

----------------------------------------------------------------------------|
-18-20-18-17----15----17----15----17----15----17----15----14----15-14-12-10-|
-------------17----15----17----15----17----15----17----15-------------------|
----------------------------------------------------------------------------|
----------------------------------------------------------------------------|
----------------------------------------------------------------------------|

-----------------------------------------------------------------------------|
-----------------------------------------------------------------------------|
-----------------------------------------------------------------------------|x2
-----------------------------------------------------------------------------|
----------7---------9----------10--------12---------12-10-9------------------|
----0-0-0-----0-0-0------0-0-0-----0-0-0------0-0-0--------------------------|

----------------------------------------------------------------------------|
----------------------------------------------------------------------------|
--------------------2-------------------------------------------------------|
-2------------4-5-4---5-4----------2----------------------------------------|
----------------------------------------------------------------------------|
----------------------------------------------------------------------------|

----------------------------------------------------------------------------|
----2-3---2---2-------------------------------------------------------------|
--4---------2---4------------------------0-2----------0---------------------|
--------------------------------------0-2-------4---2---4-2-4---------------|
------------------------------------2-------------------------5-------2-----|
----------------------------------------------------------------------------|


There are more parts, but I only put down lead.

That should be all of it!
Tap to rate this tab
 
# A B C D E F G H I J K L M N O P Q R S T U V W X Y Z