Song name
# A B C D E F G H I J K L M N O P Q R S T U V W X Y Z

Martin Odonnell - Never Forget tab

------------------------------------------------------------------------------
                 NEVER FORGET - Martin O'Donnell & Michael Salvatori
                    ============================================
                        Arrangement by : jsofts42 from Youtube
------------------------------------------------------------------------------

Tabbed by : Elliot Vainer

E-mail : Edward_manfre@yahoo.com



Tuning : Drop D; DADGBe

| ~  let ring
| /  slide up
| \  slide down
| // slide up then strum
| h  hammer-on
| p  pull-off
| ^  bend


e|-----------------------------------------------| 
B|-----------------------------------------------| 
G|-----------------------------------------------| 
D|---------5~------------------/12~--------------|
A|------2~------------------/10~-----------------|
D|---2~------------------/10~--------------------|

|-----------------------------------------------|
|-----------------------------------------------|
|-----------------------------------------------|
|---------4~--------------------------4---------| 
|------0~---------------------------0---0---0---|
|---0~----------------------------0-------0-----|

|-----------------------------------------------| 
|-----------------------------------------------| 
|-----------------------------------------------| 
|---------5~------------------/12~--------------|
|------2~------------------/10~-----------------|
|---2~------------------/10~--------------------|


|-----------------------------------------0h2h5-|
|-----------------------------------------------|
|-----------------------------------------------|
|---------4~------------------------------------| 
|------0~---------------------------------------|
|---0~------------------------------------------|

|---3~-----------------------0h2~p0~------------|           
|------0~---------------------------------------|          
|-----------------------------------------------|              
|-----------------------------------------------|          
|----------------------------3~-----------------|          
|---2~------------------------------------------|

|---------------------0----------0h2h5-|
|---3-3---------3--------3-------------|
|--------2---------2--------2----------| 
|-----------0--------------------------|
|--------------------------------------|
|-----0--------0------0----------------|

|---3~-----------------------0h2~p0~------------|           
|------0~---------------------------------------|          
|-----------------------------------------------|              
|-----------------------------------------------|          
|----------------------------3~-----------------|          
|---2~------------------------------------------|

|---------------------0~---------------|
|---3-3---------3--------3~------------|
|--------2---------2--------2~---------| 
|-----------0--------------------------|
|--------------------------------------|
|-----0--------0------0~---------------|

|-----------------------------------------------| 
|-----------------------------------------------| 
|-----------------------------------------------| 
|---------5~------------------/12~--------------|
|------2~------------------/10~-----------------|
|---2~------------------/10~--------------------|

|-----------------------------------------------|
|-----------------------------------------------|
|-----------------------------------------------|
|---------4~----------------------4h5p4---------| 
|------0~-----------------------0-------0---0---|
|---0~------------------------0-----------0-----|

                  (4h5p4 should be trilled quickly)

|-----------------------------------------------| 
|-----------------------------------------------| 
|-----------------------------------------------| 
|---------5~------------------/12^~-------------|
|------2~------------------/10~-----------------|
|---2~------------------/10~--------------------|


|-----------------------------------------0h2h5-|
|-----------------------------------------------|
|-----------------------------------------------|
|---------4^~-----------------------------------| 
|------0~---------------------------------------|
|---0~------------------------------------------|

|---------------------0----------0h2h5-|
|---3-3---------3--------3-------------|
|--------2---------2--------2----------| 
|-----------0--------------------------|
|--------------------------------------|
|-----0--------0------0----------------|

|---3~-----------------------0h2~p0~------------|           
|------0~---------------------------------------|          
|-----------------------------------------------|              
|-----------------------------------------------|          
|----------------------------3~-----------------|          
|---2~------------------------------------------|

|---------------------0~------|
|---3-3---------3--------3-0--|
|--------2---------2----------| 
|-----------0-----------------|
|-----------------------------|
|-----0--------0------0~------|

|--------------------------------------| 
|---5~-------7//8~----8/10~---10-8-7p0-| 
|-----2~----------4--------------------| 
|------------------4-------------------|
|--------------------------------------| 
|---2~-------4//5~--0------------------|

|--------------------------------------| 
|---2h5---5-3~---3/53--0~-------------|
|--------------------------------------| 
|--------------------------------------|
|--------------------------------------| 
|---2----------------------------------|

|-----------------------------------------------| 
|-----------------------------------------------| 
|-----------------------------------------------| 
|---------5~------------------/12~--------------|
|------2~------------------/10~-----------------|
|---2~------------------/10~--------------------|

|-----------------------------------------------|
|-----------------------------------------------|
|-----------------------------------------------|
|---------4~--------------------------4---------| 
|------0~---------------------------0---0---0---|
|---0~----------------------------0-------0-----|

|-----------------------------------------------| 
|-----------------------------------------------| 
|-----------------------------------------------| 
|---------5~------------------/12~--------------|
|------2~------------------/10~-----------------|
|---2~------------------/10~--------------------|


|-----------------------------------------------|
|-----------------------------------------------|
|-----------------------------------------------|
|---------4~----------------------4p0-----------| 
|------0~----------------------------------0~---|
|---0~-------------------------------------0~---|


Tap to rate this tab
# A B C D E F G H I J K L M N O P Q R S T U V W X Y Z