Song name
# A B C D E F G H I J K L M N O P Q R S T U V W X Y Z

Martin Odonnell - Halo Theme tab

Here's the version of the Halo Mjolnir Mix

^=Bridge
~=Hold
/=slide

Intro (It's the chorus, but I have it for guitar)
1
|--------------------------------|
|--------------------------------|
|---------2--------4-6-7~-6-2-6-4|
|-2-4-5-4--5-4~-2----------------|
|--------------------------------|
|--------------------------------|

|-0~-0-2-3-5~-3-3/2-3-0-2-0~--^10-|
|------------------------3--------|
|---------------------------------|
|---------------------------------|
|---------------------------------|
|---------------------------------|

|---------------------------------------|
|---------------------------------------|
|---------------------------------------|
|---------------------------------------|
|-----7~7---9~9---10~10---12~-12-10-9-7-|
|-000----000---000-----0-0--------------|

|---------------------------------------|
|---------------------------------------|
|---------------------------------------|
|---------------------------------------|
|----7~7---9~9---10~10---12~12-10-9-7---|
|-0-0---0-0---000-----0-0---------------|

|---------------------------------------|
|---------------------------------------|
|-9~~-11~-12~~-14~~---------------------|
|-9~~-11~-12~~-14~~---------------------|
|-7~~-9~~-10~~-12~~-12~~-10-9-----------|
|---------------------------------------|

|---------------------------------------|
|---------------------------------------|
|-9-9-9--12-12-12--14-14----------------|x2
|-9-9-9--12-12-12--14-14----------------|
|-7-7-7--10-10-10--12-12-12-10-9-7------|
|---------------------------------------|

This part is usually the violin, but you can play it on guitar.
|---------------------------------------|
|---------------------------------------|
|---------------------------------------|
|-2--2-4-5~--4-5-4-2-0-----0-2-4-2-0----|
|----------------------3--3----------3--|
|---------------------------------------|

|---------------------------------------|
|---------------------------------------|
|--------2~--------2-0------------------|
|-2--2-4----0-2-0------4-2-0------------|
|----------------------------3----------|

|---------------------------------------|
|---------------------------------------|
|------2~------------------2~-222-22-4--|
|--0-2---444-444-44-44-4-4--------------|
|-3-------------------------------------|
|---------------------------------------|

|---------------------------------------|
|---------------------------------------|
|-2-0--------0-2-0----------------------|
|-----4~-2-4-------4-2------------------|
|---------------------------------------|
|---------------------------------------|

|---------------------------------------|
|---------------------------------------|
|---------------------------------------|
|-2-4-2-5--2-4-2-5--2-4-2-5--2-4-2-5----|
|---------------------------------------|
|---------------------------------------|

|--------------------------------------------|
|--------------------------------------------|
|------------2---4----2---4----2---4----2---4|
|-5-4-2-0--2---2----2---2----2---2----2---2--|
|--------------------------------------------|

Repeat to 6th tab.

After that it goes like this.
|--------------------------------------------|
|--------------------------------------------|
|--------------------------2-0---------------|
|-0-2-4-5420-0-2-0-4-0-5-0-----4-2-0---------|x2
|--------------------------------------------|
|--------------------------------------------|

Repeat to 11th tab.
After repeating the 11th, repeat the 3rd and 4th.
There you go. :)
Tap to rate this tab
 
# A B C D E F G H I J K L M N O P Q R S T U V W X Y Z