Martin Odonnell - Siege Of Madrigal tab

This is actually a remix i did of this song. I basically added different guitar 
parts over the piano.
Here's the link - http://www.youtube.com/watch?v=WMLSe4WSBDI
I am also aware that this can be played a bunch of different ways
but this is how i like to play it. Also, this is my first tab so go
easy on me =P

Guitar 1 (Lead 1):
e|-------------------------------------------------------------------------------|
B|-------------------------------------------------------------------------------|
G|-------2----------------------2-------0~---------------------------------------|
D|-2-2-2----2-0~----------2-2-2----2-0~-------------0-0---------------------0-0--|
A|----------------0-2-3-5----0----------------0-2-3-----------3---------0-3------|
D|------------------------------------------5--------0-0-5-52---3~--3-5------5-5-|

e|-----------------|
B|-----------------|
G|-----------------|
D|-2---------------|
A|-----3--0~~~ <---|feedback
D|---5-------------|

Guitar 2 (Lead 2):
feedback throughout with delay
e|--------------------------------------------------------------------------------|
B|--------------------------------------------------------------------------------|
G|----------14--------------------------------14---------12~----------------------|
D|-14-14-14-----14-12~-----------12-14-14--14-----14-12~------------------12-12---|
A|----------------------12-14-15---------12-------------------10-12-14-15---------|
D|--------------------------------------------------------------------------12-12-|

e|------------------------------------------------------|
B|------------------------------------------------------|
G|------------------------------------------------------|
D|--------------------------10-12--12---14----10--------|
A|-10-10---15---------10-12------10--10----10----12~~~~-|
D|------14----15~--15-----------------------------------|

Guitar 3 (Rhythm):
e|-----------------------------------------------|
B|-----------------------------------------------|
G|-2~-5~-2-0~~-2~-5~-2-0~~--------------2~~~-----|
D|-2~------0~~-2~------------3~-0~~--3~-X~~~ <---|feedback
A|-------------------------3~------2~---3~~~-----|
D|-----------------------------------------------|
Tap to rate this tab
 
# A B C D E F G H I J K L M N O P Q R S T U V W X Y Z