Song name
# A B C D E F G H I J K L M N O P Q R S T U V W X Y Z

Martin Odonnell - Ashes tab

E-10-8----10-11-10-8-10~-8--------8------8-----------4~----------6-4-------|
B------8~------------------6~-6-8---8~-6---8~---6~-4~--6~--6~-4~-----6~----|
G--------------------------------------------------------------------------|
D--------------------------------------------------------------------------|
A--------------------------------------------------------------------------|
E--------------------------------------------------------------------------|

E--------------------------------------------------------------------------|
B--------------------------------------------------------------------------|
G--------------------------------------------------------------------------|
D---------------------1---3---4----------------------------1---4---1-------|
A---3-4-3---3-4-3---4---4---4---4------3-4-3----3-4-3----4---4---4---4-----|
E-1-------1-------2------------------1--------1--------2-------------------|
Tap to rate this tab
 
# A B C D E F G H I J K L M N O P Q R S T U V W X Y Z