Guitaretab - guitar tabs
Song name
# A B C D E F G H I J K L M N O P Q R S T U V W X Y Z

Martin Sexton - Wasted tab

Intro/verse:

E -----------    ----------    ---------    ----------|
B -----------    ----------    ---------    ----------|
G -----------    ----------    ---------    ----------|
D ------7---- X4 ---------- X4 --------- X4 ----------| X4
A ---5-------    -------7--    ------9--    ------5---|
E -----------    ---5------    --7------    ---3------|

Don't waste it
It's only here for today
You don't own it
So you can't just give it away
Forever is half a moment away
So don't waste it
It's only here for today

    F#5 - G5 - A5
E ------------------|
B ------------------|
G ------------------|
D --4-4---5-5--7-7--|  X2
A --4-4---5-5--7-7--|
E --2-2---3-3--5-5--|

Everything is waiting here

Chorus:

E -----------    ----------    ---------    ----------|
B -----------    ----------    ---------    ----------|
G ---7-------    ----------    ---------    ----------|
D ---7------- X8 ---7------ X8 ---9----- X8 ---5------| X8
A ---5-------    ---7------    ---9-----    ---5------|
E -----------    ---5------    ---7-----    ---3------|


Don't mess with my heart, don't mess with my mind
Won't let you get us down this time.
You'll like what you see and take it from me
You'll learn to see it over time.
Get wasted on love, get wasted on life, get wasted on anything that's right.
Get wasted, get wasted, get wasted, get wasted with me.


E -----------    ----------    ---------    ----------|
B -----------    ----------    ---------    ----------|
G -----------    ----------    ---------    ----------|
D ------7---- X4 ---------- X4 --------- X4 ----------| X4
A ---5-------    -------7--    ------9--    ------5---|
E -----------    ---5------    --7------    ---3------|

It seems empty
I don't know what you expect
If you don't give
You're never going to get
Forever is half a moment away
So don't waste it
It's only here for today

  F#5 - G5 - A5
E ------------------|
B ------------------|
G ------------------|
D --4-4---5-5--7-7--|  X2
A --4-4---5-5--7-7--|
E --2-2---3-3--5-5--|

Everything is waiting here

Chorus:

E -----------    ----------    ---------    ----------|
B -----------    ----------    ---------    ----------|
G ---7-------    ----------    ---------    ----------|
D ---7------- X8 ---7------ X8 ---9----- X8 ---5------| X8
A ---5-------    ---7------    ---9-----    ---5------|
E -----------    ---5------    ---7-----    ---3------|

[ Tab from: http://www.guitaretab.com/m/martin-sexton/128851.html ]
Don't mess with my heart, don't mess with my mind
Won't let you get us down this time.
You'll like what you see and take it from me
You'll learn to see it over time.
Get wasted on love, get wasted on life, get wasted on anything that's right.
Get wasted, get wasted, get wasted, get wasted with me.

Solo:

E|--------------------------------------------------------------------|
B|--------------------------------------------------------------------|
G|---11-12-11-14-14-11-12-11-9---------------------------------------|
D|-----------------------------12-7-----------------------------------|
A|--------------------------------------------------------------------|
E|--------------------------------------------------------------------|


E|--------------------------------------------------------------------|
B|--------------------------------------------------------------------|
G|----------------------9-9-11-11--15-15--15-15-----------------------|
D|---------7/9-9-12-12------------------------------------------------|
A|--------------------------------------------------------------------|
E|--------------------------------------------------------------------|

E|---------------------------------------------------14-15-14-15-14-12-10-|
B|---------------------------------------15-15-15-15----------------------|
G|-11-12-11-14-14-11---11-12-11-14-14-11----------------------------------|
D|------------------------------------------------------------------------|
A|------------------------------------------------------------------------|
E|------------------------------------------------------------------------|

F#5 - G5 - A5
E ------------------|
B ------------------|
G ------------------|
D --4-4---5-5--7-7--|  X2
A --4-4---5-5--7-7--|
E --2-2---3-3--5-5--|

Everything is waiting here

Chorus:

E -----------    ----------    ---------    ----------|
B -----------    ----------    ---------    ----------|
G ---7-------    ----------    ---------    ----------|
D ---7------- X8 ---7------ X8 ---9----- X8 ---5------| X8
A ---5-------    ---7------    ---9-----    ---5------|
E -----------    ---5------    ---7-----    ---3------|


Don't mess with my heart, don't mess with my mind
Won't let you get us down this time.
You'll like what you see and take it from me
You'll learn to see it over time.
Get wasted on love, get wasted on life, get wasted on anything that's right.
Get wasted, get wasted, get wasted, get wasted with me.


F#5 - G5 - A5
E ------------------|
B ------------------|
G ------------------|
D --4-4---5-5--7-7--|
A --4-4---5-5--7-7--|
E --2-2---3-3--5-5--|
Related for Wasted tab