Song name
# A B C D E F G H I J K L M N O P Q R S T U V W X Y Z

Martin Sexton - My Faith Is Gone tab

My Faith Is Gone

By: Martin Sexton

Standard tuning


Verse
        Am           G            Am
E-----------------------------------------------------------|
B-------1--------1---0--------0----1-------1---1-------1----|
G-------2----2-------0----0--------2----2------2----2-------|
D----------2-------2----0-------0-----2------2----2------2--|
A-------0------0-------------------0------0----0------0-----|
E---0-3--------------3------3-------------------------------|

Chorus
    F           G            Am                        G
E----------------------------------------------------------|
B---1-------1---0-------0----1-------0-----1--------1------|
G---2---2-------0---0--------2---2-------2------2-----0----|
D-----3-------3---0-------0----2-------2------2------------| Repeat
A----------------------------0-----0-------0------0--------|
E---1-----1-----3-----3-------------------------------3----|

Chorus Ending
   F           G            C     G/B   Am    G     F
E---------------------------------------------------------------------------------|
B--1-------1---0-------0----1-----1-----1-----0-----1-------1---1-------1---------|
G--2---2-------0---0--------0---0-0---0-2---2-0---0-2---2-------2---2-------------|
D----3-------3---0-------0----2-----0-----2-----0-----3-------3---3-------3-------|
A---------------------------3-----2-----0-----------------------------------------|
E--1-----1-----3-----3------------------------3-----1-----1-----1-----1-----------|
   G
E---------------------------|
B--0-------0---0-------0----|
G--0---0-------0---0--------|
D----0-------0---0-------0--| Play the Verse Riff
A---------------------------|
E--3-----3-----3-----3------|

I'll put the chords over the lyrics, then apply the patterns above.

Am   G       Am
My Faith is Gone
Am  G        Am
My Faith is Gone
Am       G      Am
I Tried to hold on
Am      G         Am
but my faith was gone

Am  G        Am
my faith in you
Am  G       Am
my faith in me
Am   G           Am
we fought your war then
Am G      Am
began to see

F          G              Am       G
all of the people in the streets
F        G           Am         G
beatin arrested and slayed
F            G           Am           G
when is your mission complete
F          G               C
when the whole worlds gone insane
         G/B    Am    G      F
can you tell me now, tell me please
            G
cause I'm listening

(Same as above)

My faith is gone
my faith is gone
we build your walls
cause you make more laws

laws that will hold the rich high
laws that will chain the poor down
but in the meantime we fight
we're gonna meet on common ground
gonna lose the fear that you hold so dear
is there anybody there in that great big chair

(Use The same kind of picking pattern here, i didn't TAB the bridge)

        G
Moral majority
           F
phonetic minority
         G
silent minorities
         F   (single notes)  C B A
silent majorities
   G     Am (back to chords on the Am)
somethin wrong

my faith is gone
my faith is gone
i tried to hold on
but my faith was gone
my faith was gone


open for criticism...............craig_eddy10@yahoo.com
Tap to rate this tab
# A B C D E F G H I J K L M N O P Q R S T U V W X Y Z