Song name
# A B C D E F G H I J K L M N O P Q R S T U V W X Y Z

Martin Solveig - Hello tab

e-------------------------------------------------------------------|
B-------------------------------------------------------------------|
G-------------------------------------------------------------------|
D-2-2-2-2-2-2-2-2-2-2-2-2-2-2---------------------------------------|
A-----------------------------2-2-2-2-------------------------------|
E-------------------------------------------------------------------|

Play this as much times as you need to until the beat kicks in. then play this

e-------------------------------------------------------------------|
B-------------------------------------------------------------------|
G-4-4-4-4-4-4-4-4-4-4-4-4-4-4---------------------------------------|
D-2-2-2-2-2-2-2-2-2-2-2-2-2-2-4-4-4-4-------------------------------|
A-----------------------------2-2-2-2-------------------------------|
E-------------------------------------------------------------------|

Enjoy!
Tap to rate this tab
 
# A B C D E F G H I J K L M N O P Q R S T U V W X Y Z