Song name
# A B C D E F G H I J K L M N O P Q R S T U V W X Y Z

Martin Solveig - The Night Out tab

-------------------------------------------------------------------------------
                             THE NIGHT OUT - Martin Solveig
-------------------------------------------------------------------------------
Tabbed by: Dylan Smith
E-mail: dil99999@gmail.com

Tuning: Standard

Quick little transcription I did.
The basic chord progression is Emaj7, G#min7, B, C#min.
You can mix it up by playing B7 and C#min7 instead, it sounds pretty good.

   Emaj7  G#min7 B       C#min
e|-7------4------7-------9------|
B|-9------4------7-------9------|
G|-8------4------8-------9------|
D|-9------4------9-------11-----|
A|-7------6------9-------11-----|
E|-x------4------7-------9------|



   Emaj7  G#min7 B7      C#min7
e|-7------4------7-------9------|
B|-9------4------7-------9------|
G|-8------4------8-------9------|
D|-9------4------7-------9------|
A|-7------6------9-------11-----|
E|-x------4------7-------9------|
Tap to rate this tab
# A B C D E F G H I J K L M N O P Q R S T U V W X Y Z