Song name
# A B C D E F G H I J K L M N O P Q R S T U V W X Y Z

Martin Taylor - Take Five tab

                                  Take Five                                     


                                                                   Martin Taylor
Track 1



      Opening Vamp                                                              
      Em                          Bm7           Em                Bm7           
      E            E  E  E  E  E  Q    E  E     E  E  E  E  E  E  Q    E  E   4x
E||----------------0--------0----------------|-----0--------0-----------------||
B||----------------0--------0----------3-----|-----0--------0----------3------||
G||*---------------0--------0----------2-----|-----0--------0----------2-----*||
D||*-----------------------------------------|-------------------------------*||
A||-------------------------------2----------|--------------------2-----------||
E||---0------------------0-----0----------2--|--0--------0-----0----------2---||


  Theme Statement                                          
                               Em               Bm         
  E               E  E   E     E  E  E  E  Q    Q    Q     
----------------------------|--6--7--6--5--3--------------|
---------------------8--10--|--0----------------0----3----|
------------------9---------|--8--9-----------------------|
--9-------------------------|-----------------------------|
----------------------------|--------------3--------------|
----------------------------|--0----------------2----0----|


  Em               Bm9                Em               Bm7          
  E  E  E  E  Q    S   S  S S Q       E  E  E  E  Q    E   E  Q     
--0--L--L--L--L----2h--3p-2-0------|--0--L--L--L--L----------------|
-----0--------0----2----------3----|-----0--------0----3---0-------|
-----0--------0----2---------------|-----0--------0----2------2----|
-----0--------0--------------------|-----0--------0----------------|
-------------------2---L--L-L-L----|-------------------2---L--L----|
--0--L-----0--L--------------------|--0--------0--L----------------|


  Em               Bm             Em               Bm         
  E  E  E  E  Q    E  E  E  E     E  E  E  E  Q    Q    Q     
----------------------0--3--5--|--6--7--6--5--3--------------|
--0--L--L--L--L----0-----------|--0----------------0----3----|
-----0--------0----------------|--8--9-----------------------|
-----0--------0----------------|-----------------------------|
-------------------2-----------|--------------3--------------|
--0--L-----0--L----------------|--0----------------2----0----|


  Em               Bm9                Em               Bm7          
  E  E  E  E  Q    S   S  S S Q       E  E  E  E  Q    E   E  Q     
--0--L--L--L--L----2h--3p-2-0------|--0--L--L--L--L----------------|
-----0--------0----2----------3----|-----0--------0----3---0--3----|
-----0--------0----2---------------|-----0--------0----2-----------|
-----0--------0--------------------|-----0--------0----------------|
-------------------2---L--L-L-L----|-------------------2---L--L----|
--0--L-----0--L--------------------|--0--------0--L----------------|


  Em               Bm7           Am7                   D7              
  E  E  E  E  Q    Q    Q        E   E   E   E   Q     E   E   E   E   
-----------------------------|--12--15------12------------------------|
--0--L--L--L--L----3----0----|--13--------------13----10--12--13--14--|
-----0--------0----2---------|--12--------------------11--------------|
-----0--------0--------------|------------------------10--------------|
-------------------2---------|--12---L---L---L---L--------------------|
--0--L-----0--L--------------|------------------------10---L---L---L--|


   Bm7                Em7                Am7                   D7              
   E   E  E   E  Q    E    E   E  E      E   E   E   E   Q     E   E   E   E   
--10--14-----10--7----------------7--|------12--------------------------------|
---7-------------7----8---10--11-----|--13----------13--------10--12--13--14--|
---7-------------7----7--------------|--12--------------14----11--------------|
-------------------------------------|------------------------10--------------|
-------------------------------------|--12---L---L---L---L--------------------|
---7---L--L---L--7----0----L---L--L--|------------------------10---L---L---L--|


   G   F#  G   Am  Bm        A#m Bm  Cm  
   E   E   E   E   Q     E   E   E   E   
----------------------------------------|
--12--11--12--13--15----15--14--15--16--|
----------------------------------------|
----------------------------------------|
--10---9--10--12--14----14--13--14--15--|
----------------------------------------|


   Am7                   D7                 Bm7                Em7             
   E   E   E   E   Q     E   E   E   E      E   E  E   E  Q    E    E   E  E   
--12--15------12------------------------|--10--14-----10--7----------------7--|
--13--------------13----10--12--13--14--|---7-------------7----8---10--11-----|
--12--------------------11--------------|---7-------------7----7--------------|
------------------------10--------------|-------------------------------------|
--12---L---L---L---L--------------------|-------------------------------------|
------------------------10---L---L---L--|---7---L--L---L--7----0----L---L--L--|


   Am7                  Am/G               F#m11         B7           
   E   E  E   E   Q     E    E   E   E     H        Q    E  E  E  E   
------12------------------------10------|--7--------L-------0--3--5--|
--13---------13---------------------13--|----------------0-----------|
--12-------------14----10---11----------|-----------9----2-----------|
----------------------------------------|-----------7----------------|
---0---L--L---L---L----10----L---L---L--|--9--------L----2--L--L--L--|
----------------------------------------|----------------------------|


  Em               Bm           Em               Bm9              
  E  E  E  E  Q    Q    Q       E  E  E  E  Q    S   S  S S Q     
--6--7--6--5--3--------------|--0--L--L--L--L----2h--3p-2-0------|
--0----------------0----3----|-----0--------0----2----------3----|
--8--9-----------------------|-----0--------0----2---------------|
-----------------------------|-----0--------0--------------------|
--------------3--------------|-------------------2---L--L-L-L----|
--0----------------2----0----|--0--L-----0--L--------------------|


  Em               Bm7            Em               Bm           
  E  E  E  E  Q    E   E  Q       E  E  E  E  Q    E  E  E  E   
--0--L--L--L--L----------------|----------------------0--3--5--|
-----0--------0----3---0-------|--0--L--L--L--L----0-----------|
-----0--------0----2------2----|-----0--------0----------------|
-----0--------0----------------|-----0--------0----------------|
-------------------2---L--L----|-------------------2-----------|
--0--------0--L----------------|--0--L-----0--L----------------|


  Em               Bm           Em               Bm9              
  E  E  E  E  Q    Q    Q       E  E  E  E  Q    S   S  S S Q     
--6--7--6--5--3--------------|--0--L--L--L--L----2h--3p-2-0------|
--0----------------0----3----|-----0--------0----2----------3----|
--8--9-----------------------|-----0--------0----2---------------|
-----------------------------|-----0--------0--------------------|
--------------3--------------|-------------------2---L--L-L-L----|
--0----------------2----0----|--0--L-----0--L--------------------|


  Em               Bm7            Em                     
  E  E  E  E  Q    E   E  Q       W                Q     
--0--L--L--L--L----------------|--0----------------L----|
-----0--------0----3---0--3----|--0----------------L----|
-----0--------0----2-----------|--0----------------L----|
-----0--------0----------------|------------------------|
-------------------2---L--L----|------------------------|
--0--------0--L----------------|--0----------------L----|


  Improvised Chorus                                                       
  Em9                           F#m7 F9      Em9               Bm7        
  Q                 E  E  Q     Q    Q       E   E  E  E  Q    Q    Q     
-----------------------5--L---------------|------------0--L--------------|
--7----------------------------10----8----|--7---8--L----------3----1----|
--------------------7-----L-----9----8----|--7---L--L--L--L----2---------|
--------------------5-----L---------------|------------------------------|
--7-----------------L--L--L-----9----8----|--7---L--L--L--L----2---------|
------------------------------------------|-------------------------2----|


  Em7              Bm9          Em7              B7#9#5      
  E   E  Q    Q    Q    Q       Q    E  E  Q     Q     Q     
--------------0----2----3----|--0----L--L--L----10-----8----|
--0---L--L----L----2----L----|-------------------8-----8----|
------0--L---------2----L----|----------0--L-----8-----8----|
------0--L-------------------|----------0--L-----7-----7----|
-------------------2----L----|------------------------------|
--0---L--L----L--------------|--0----L--L--L-----7-----L----|


  Em7               F#m7 F9#11    Em9              F#m7 F9    
  Q    E  E  E  E   Q    Q        Q.     E  E  E   Q    Q     
--7----L--L--L--7--------7-----|-----------------------------|
----------8--L--L--10----8-----|--7------8--L-----10----8----|
----------7--L--L---9----8-----|--7------7--L--7---9----8----|
----------7--L--L--------------|--5------5--L----------------|
--7----L--L--7--L---9----8-----|--7------L--L--L---9----8----|
-------------------------------|-----------------------------|


  Em7                Bm7          Em7             Bm7  A#m11  
  E   E  E  E  E  E  Q    Q       Q    E  E  Q    Q    Q      
------------0--L---------------|--0----L--L--L---------------|
--7---8--L--------0--3----0----|-----------------------------|
--7---L--L--L--L--L--2----L----|----------0--L----7----8-----|
--5---L--L--L--L--L------------|----------0--L----7----6-----|
---------------------2----L----|-----------------------------|
--0---L--L--L--L--L------------|--0----L--L--L----7----6-----|


  Am7    D#7      D7   Bm7                      Em7  A#/5-  
  Q.     E   Q    Q    Q       Q.      E   Q    Q    Q      
---------6---L----5---------|------------------------------|
--5--------------------8----|---------10---L----8----5-----|
--5------6---L----5----7----|--7----------------7----------|
--5--------------------7----|--7---------------------------|
---------6---L----5---------|----------9---L----7----------|
--5--------------------7----|--7---------------------6-----|


  Am7            D7   C7      Bm7    F9      E7         
  Q.     E  Q    Q    Q       Q.     E  Q    Q    Q     
---------------------------|----------------------7----|
---------8--L----7---------|---------8--L----9---------|
--5-------------------9----|--7------8--L----7----L----|
--5-------------------8----|--7------------------------|
-----------------5---------|---------8--L----7----L----|
--5------5--L---------8----|--7------------------------|


  Am7            D9   Bm7     Bm7              Em7  Bm7   
  Q.     E  Q    Q    Q       Q.      E   Q    Q    Q     
---------7--L----5---------|-----------------------------|
--5--------------5----7----|---------10---L----8---------|
--5--------------5----7----|--7---------------------7----|
--5-------------------7----|--7---------------------7----|
---------7--L----5---------|----------9---L----7---------|
--5-------------------7----|--7---------------------7----|


  Am7            G13sus4 Gm13    F#m7/5-      B7/5+          
  Q.     E  Q    Q       Q       Q.      Q    Q     Q    E   
------------------------------|-----------------------------|
---------5--L----5-------5----|--1-------0----8-----7-------|
--5------5--L----5-------3----|--2------------8-----8-------|
--5------5--L----3-------3----|--2------------7-----7-------|
------------------------------|-----------------------------|
--5--------------3-------3----|--2------------7-----L----7--|


         Em7       F#m7                  Gm7      F#m7        
  Q.     E   Q     Q    E  E     Q.      E  Q     Q    E  E   
---------7---L-----9----------|---------10--L-----9----------|
---------8---L----10----------|---------11--L----10----------|
---------7---L-----9----------|---------10--L-----9----------|
---------7---L-----9----------|---------10--L-----9----------|
------------------------------|------------------------------|
--0------L---L-----L----L--7--|--0-------L--L-----L----L--7--|


         Em7       F#m7                Em7       F#m7        
  Q.     E   Q     Q    Q       Q.     E   Q     Q    E  E   
---------7---L-----9----5----|--7------L---L-------------9--|
---------8---L----10----6----|---------8---L----10----------|
---------7---L-----9----5----|---------7---L-----9----------|
---------7---L-----9----5----|---------7---L-----9----------|
-----------------------------|------------------------------|
--0------L---L-----L---------|--0------L---L-----L----L-----|


         Em7       F#m7                  Em7                   
  Q.     E   Q     Q    E   E     Q.     E   E  Q     Q    E   
--7----------L-----9-------10--|--7------L---L--7----------7--|
---------8---L----10-----------|---------8---L-------10-------|
---------7---L-----9-----------|---------7---L----------------|
---------7---------------------|---------7---L----------------|
-------------------------------|----------------------9-------|
--0------L---L-----L----L------|--0------L---L--------L----L--|


                   F#m7                Em7      Bm7        
  Q.     E  E  E   Q    Q       Q.     E   Q    Q    Q     
---------7--L----------------|--0-------------------------|
--8------------8--10----8----|---------0---L----3----0----|
--7----------------9----7----|---------0---L----2---------|
--7----------------9----7----|---------0---L--------------|
-----------------------------|------------------2---------|
--0------L--L--L---L----L----|--0--------------------2----|


  Em                                       Em               Bm         
  W                Q       E  E  E   E     E  E  E  E  Q    Q    Q     
--0----------------L----|---------------|--6--7--6--5--3--------------|
--0----------------L----|--------8--10--|--0----------------0----3----|
--0----------------L----|-----9---------|--8--9-----------------------|
------------------------|--9------------|-----------------------------|
------------------------|---------------|--------------3--------------|
--0----------------L----|---------------|--0----------------2----0----|


  H        Q     H            W                 Q              
----------------12--------|---L-----------------L----|-------||
--5-------------12--------|---L-----------------L----|-------||
----------------12--------|---L-----------------L----|-------||
--------------------------|--------------------------|-------||
--------------------------|--------------------------|-------||
-----------0--------------|--------------------------|-------||




Duration Legend
---------------
W - whole
H - half
Q - quarter
E - 8th
S - 16th
T - 32nd
X - 64th
. - note dotted
|-n-|  - n-tuplets


Tablature Legend
----------------
L - tied note
x - dead note
g - grace note
(n) - ghost note
> - accentuded note
NH - natural harmonic
AH - artificial harmonic
TH - tapped harmonic
SH - semi harmonic
PH - pitch harmonic
h - hammer on
p - pull off
b - bend
br - bendRelease
pb - preBend
pbr - preBendRelease
brb - bendReleaseBend
\n/ - tremolo bar dip
\n - tremolo bar dive
-/n - tremolo bar Release up
/n\ - tremolo bar inverted dip
/n - tremolo bar return
-\n - tremolo bar Release down
S - shift slide
s - legato slide
/ -  slide into from below or out of upwards
\ -  slide into from above or out of downwards
~ - vibrato
W - wide vibrato
tr - trill
TP - tremolo picking
T - tapping
S - slap
P - pop
< - fade in
^ - brush up
v - brush down
Tap to rate this tab
 
# A B C D E F G H I J K L M N O P Q R S T U V W X Y Z