Song name
# A B C D E F G H I J K L M N O P Q R S T U V W X Y Z

Martina Mcbride - Concrete Angel tab

e--7-5---7-5--5-9-10-9-5--7-5---7-5--0------3-3-2-2-2-0-0-----3-3-2-2-2-0-0---|
B-5-----5----5-----------5-----5------2-3-----------------3-3---------------3-|
G-----------------------------------------------------------------------------|
D-----------------------------------------------------------------------------|
A-----------------------------------------------------------------------------|
E-----------------------------------------------------------------------------|

e--3-3-5-5-2-0--0-0-2-3-3-2-2-2-0-0--------0-0---3-3-2-2-2-2-0-0-----3-3-2-2-|
B-3-----------3---------------------3-3-3------3-----------------3-3---------|
G----------------------------------------------------------------------------|
D----------------------------------------------------------------------------|
A----------------------------------------------------------------------------|
E----------------------------------------------------------------------------|

e-2-2-0-0-----3-3-5-5-2-0--0-0-2-3-3-2-2-2-2-0-0----5-10-10-5-10-10-5-10-14--|
B---------3-3-------------3----------------------3-3-------------------------|
G----------------------------------------------------------------------------|
D----------------------------------------------------------------------------|
A----------------------------------------------------------------------------|
E----------------------------------------------------------------------------|

e-15-14-10-5-10-10-5-12-10-5-2-3-5-10-10-5-10-10-5-10-14-15-14-10-5-12-10-15-|
B----------------------------------------------------------------------------|
G----------------------------------------------------------------------------|
D----------------------------------------------------------------------------|
A----------------------------------------------------------------------------|
E----------------------------------------------------------------------------|

e-14-12-12-10--3-3-2-2-2-0-0-------3-3-2-2-2-0-0------3-3-5-5-2-0--0-0-2-3-3-|
B----------------------------3-3-3---------------3-3-3------------3----------|
G----------------------------------------------------------------------------|
D----------------------------------------------------------------------------|
A----------------------------------------------------------------------------|
E----------------------------------------------------------------------------|

e-2-2-2-0-0-----5-10-10-5-10-10-5-10-14-15-14-10-5-10-10-5-12-10-5-2-3-5-10--|
B-----------3-3--------------------------------------------------------------|
G----------------------------------------------------------------------------|
D----------------------------------------------------------------------------|
A----------------------------------------------------------------------------|
E----------------------------------------------------------------------------|

e-10-5-10-10-5-10-14-15-14-10-5-12-10-15-14-12-12-10-3-3-2-2-2-0-0-----3-3-2-|
B------------------------------------------------------------------3-3-------|
G----------------------------------------------------------------------------|
D----------------------------------------------------------------------------|
A----------------------------------------------------------------------------|
E----------------------------------------------------------------------------|

e-2-2-0-0-----3-3-5-5-2-0---0-0-2-3-3-2-2-2-0-0-----5-10-10-5-10-10-5-10-14--|
B---------3-3-------------3---------------------3-3--------------------------|
G----------------------------------------------------------------------------|
D----------------------------------------------------------------------------|
A----------------------------------------------------------------------------|
E----------------------------------------------------------------------------|

e-15-14-10-5-10-10-5-12-10-5-2-3-5-10-10-5-10-10-5-10-14-15-14-10-5-12-10-15-|
B----------------------------------------------------------------------------|
G----------------------------------------------------------------------------|
D----------------------------------------------------------------------------|
A----------------------------------------------------------------------------|
E----------------------------------------------------------------------------|

e-14-12-12-10----------------------------------------------------------------|
B----------------------------------------------------------------------------|
G----------------------------------------------------------------------------|
D----------------------------------------------------------------------------|
A----------------------------------------------------------------------------|
E----------------------------------------------------------------------------|
Tap to rate this tab
# A B C D E F G H I J K L M N O P Q R S T U V W X Y Z