Song name
# A B C D E F G H I J K L M N O P Q R S T U V W X Y Z

Martina Topley Bird - Sandpaper Kisses tab

-------------------------------------------------------------------------------
Martina Topley Bird  Sandpaper Kisses
-------------------------------------------------------------------------------
Tabbed by:
E-mail:

Tuning: standart

|---6------8-------8--|
|---6------8-------9--|
|---6------8-------10-|
|---8------10------10-|
|---8------10------8--|
|---6------8-------8--|

1:53
|--------------------|
|--------------------|
|--------------------|
|---3------6-------8-|
|---3------6-------8-|
|---1------4-------6-|

************************************

| /   slide up
| \   slide down
| h   hammer-on
| p   pull-off
| ~   vibrato
| +   harmonic
| x   Mute note
| b   Bend
| pb  Pre-bend
| br  Bend release
| pbr Pre-bend release
| brb Bend release bend

************************************
Tap to rate this tab
# A B C D E F G H I J K L M N O P Q R S T U V W X Y Z