Song name
# A B C D E F G H I J K L M N O P Q R S T U V W X Y Z

Marty Friedman - Strange Gods And Suspicious Angels tab

-------------------------------------------------------------------------------
	      STRANGE GODS AND SUSPICIOUS ANGELS - Marty Friedman
-------------------------------------------------------------------------------
Tabbed by: metallhead
Email: homesticky@gmail.com

Tuning: E A D G B E



Gtr I (D A D G B E) - 'Guitar'
Gtr II (E A D G B E) - 'Guitar'
Gtr III (E A D G B E) - 'Guitar'

  Q=160
 8/4
  Gtr I
  E E E E E E E E +E  E +E  E +E  E Q    E E E E E E E E +E  E +E  E +E  E Q
|--------------------------------------|---------------------------------------|
|--------------------------------------|---------------------------------------|
|--------------------------------------|---------------------------------------|
|--------------------------------------|---------------------------------------|
|---------0-----1-(1)-0-(0)------------|---------0-----1-(1)-0-(0)-------------|
|-2-2-5-2---2-2-------------5-(5)-2-0--|-2-2-5-2---2-2-------------5-(5)-2-0---|


  E E E E E E E E +E  E +E  E +E  E Q    E E E E E E E E +E  E +E  E +E  E Q
|--------------------------------------|--------------------------------------|
|--------------------------------------|--------------------------------------|
|--------------------------------------|--------------------------------------|
|--------------------------------------|--------------------------------------|
|---------0-----1-(1)-0-(0)------------|---------0-----1-(1)-0-(0)------------|
|-2-2-5-2---2-2-------------5-(5)-2-0--|-2-2-5-2---2-2-------------5-(5)-2-0--|


  E E E E E E E E +E  E +E  E +E  E Q    E E E E E E E E +E  E +E  E +E  E Q
|--------------------------------------|--------------------------------------|
|--------------------------------------|--------------------------------------|
|--------------------------------------|--------------------------------------|
|--------------------------------------|--------------------------------------|
|---------0-----1-(1)-0-(0)------------|---------0-----1-(1)-0-(0)------------|
|-2-2-5-2---2-2-------------5-(5)-2-0--|-2-2-5-2---2-2-------------5-(5)-2-0--|


  E E E E E E E E +E  E +E  E +E  E Q    E E E E E E E E +E  E +E  E +E  E Q
|--------------------------------------|--------------------------------------|
|--------------------------------------|--------------------------------------|
|--------------------------------------|--------------------------------------|
|--------------------------------------|--------------------------------------|
|---------0-----1-(1)-0-(0)------------|---------0-----1-(1)-0-(0)------------|
|-2-2-5-2---2-2-------------5-(5)-2-0--|-2-2-5-2---2-2-------------5-(5)-2-0--|
|
| Gtr II
| E E Q   Q   Q    Q     Q     Q    Q    E E Q   Q   Q    Q     Q     Q    Q
|--------------------------------------|--------------------------------------|
|--------------------------------------|--------------------------------------|
|--------------------------------------|--------------------------------------|
|--------------------------------------|--------------------------------------|
|-2-2----------------------------------|-2-2----------------------------------|
|-0-0----------------------------------|-0-0----------------------------------|


  E E E E E E E E +E  E +E  E +E  E Q    E E E E E E E E +E  E +E  E +E  E Q
|--------------------------------------|--------------------------------------|
|--------------------------------------|--------------------------------------|
|--------------------------------------|--------------------------------------|
|--------------------------------------|--------------------------------------|
|---------0-----1-(1)-0-(0)------------|---------0-----1-(1)-0-(0)------------|
|-2-2-5-2---2-2-------------5-(5)-2-0--|-2-2-5-2---2-2-------------5-(5)-2-0--|
|
| W                                      E E Q   Q   Q    Q     Q     Q    Q
|--------------------------------------|--------------------------------------|
|--------------------------------------|--------------------------------------|
|--------------------------------------|--------------------------------------|
|--------------------------------------|--------------------------------------|
|--------------------------------------|-2-2----------------------------------|
|--------------------------------------|-0-0----------------------------------|


  E E E E E E E E +E  E +E  E +E  E Q    E E E E E E E E +E  E +E  E +E  E Q
|--------------------------------------|--------------------------------------|
|--------------------------------------|--------------------------------------|
|--------------------------------------|--------------------------------------|
|--------------------------------------|--------------------------------------|
|---------0-----1-(1)-0-(0)------------|---------0-----1-(1)-0-(0)------------|
|-2-2-5-2---2-2-------------5-(5)-2-0--|-2-2-5-2---2-2-------------5-(5)-2-0--|
|
| W                                      E E Q   Q   Q    Q     Q     Q    Q
|--------------------------------------|--------------------------------------|
|--------------------------------------|--------------------------------------|
|--------------------------------------|--------------------------------------|
|--------------------------------------|--------------------------------------|
|--------------------------------------|-2-2----------------------------------|
|--------------------------------------|-0-0----------------------------------|


  E E E E E E E E +E  E +E  E +E  E Q    E E E E E E E E +E  E +E  E +E  E Q
|--------------------------------------|--------------------------------------|
|--------------------------------------|--------------------------------------|
|--------------------------------------|--------------------------------------|
|--------------------------------------|--------------------------------------|
|---------0-----1-(1)-0-(0)------------|---------0-----1-(1)-0-(0)------------|
|-2-2-5-2---2-2-------------5-(5)-2-0--|-2-2-5-2---2-2-------------5-(5)-2-0--|
|
| E E Q   Q   Q    E  E  Q     Q    Q    E E Q   Q   Q    E  E  Q     Q    Q
|--------------------------------------|--------------------------------------|
|--------------------------------------|--------------------------------------|
|--------------------------------------|--------------------------------------|
|--------------------------------------|--------------------------------------|
|-2-2--------------2--2----------------|-2-2--------------2--2----------------|
|-0-0--------------0--0----------------|-0-0--------------0--0----------------|


  E E E E E E E E +E  E +E  E +E  E Q
|--------------------------------------|
|--------------------------------------|
|--------------------------------------|
|--------------------------------------|
|---------0-----1-(1)-0-(0)------------|
|-2-2-5-2---2-2-------------5-(5)-2-0--|
|
| E E Q   E E Q    E  E  Q     E  E Q
|--------------------------------------|
|--------------------------------------|
|--------------------------------------|
|--------------------------------------|
|-2-2-----2-2------2--2--------2--2----|
|-0-0-----0-0------0--0--------0--0----|


  E E E E E E E E +S  S E +S  S E +S  S E Q
|---------------------------------------------|
|---------------------------------------------|
|---------------------------------------------|
|---------------------------------------------|
|---------0-----1-(1)---0-(0)-----------------|
|-2-2-5-2---2-------------------5-(5)---2-0---|
|
| E E E E E E Q    Q       Q       Q      Q
|---------------------------------------------|
|---------------------------------------------|
|---------------------------------------------|
|---------------------------------------------|
|-2-2-2-2-2-2---------------------------------|
|-0-0-0-0-0-0---------------------------------|


  E E E E E E E E E E E E E E Q    E E E E E E E E E E E E E E Q
|--------------------------------|--------------------------------|
|--------------------------------|--------------------------------|
|--------------------------------|--------------------------------|
|-----------3-2---3-2---3-2------|-----------3-2---3-2---3-2------|
|-2-2-2-2---1-0---1-0---1-0------|-2-2-2-2---1-0---1-0---1-0------|
|-2-2-2-2------------------------|-2-2-2-2------------------------|
|
| E E E E E E E E E E E E E E Q    E E E E E E E E E E E E E E Q
|--------------------------------|--------------------------------|
|--------------------------------|--------------------------------|
|--------------------------------|--------------------------------|
|-----------3-2---3-2---3-2------|-----------3-2---3-2---3-2------|
|-2-2-2-2---1-0---1-0---1-0------|-2-2-2-2---1-0---1-0---1-0------|
|-0-0-0-0------------------------|-0-0-0-0------------------------|


  E E E E E E E E E E E E E E Q    E E E E E E E E E E E E E E Q
|--------------------------------|--------------------------------|
|--------------------------------|--------------------------------|
|--------------------------------|--------------------------------|
|-----------3-2---3-2---3-2------|-----------3-2---3-2---3-2------|
|-2-2-2-2---1-0---1-0---1-0------|-2-2-2-2---1-0---1-0---1-0------|
|-2-2-2-2------------------------|-2-2-2-2------------------------|
|
| E E E E E E E E E E E E E E Q    E E E E E E E E E E E E E E Q
|--------------------------------|--------------------------------|
|--------------------------------|--------------------------------|
|--------------------------------|--------------------------------|
|-----------3-2---3-2---3-2------|-----------3-2---3-2---3-2------|
|-2-2-2-2---1-0---1-0---1-0------|-2-2-2-2---1-0---1-0---1-0------|
|-0-0-0-0------------------------|-0-0-0-0------------------------|


  E E E E E E E E  E  E E E E E Q    E E E E E E E E  E  E E E E E Q
|----------------------------------|----------------------------------|
|----------------------------------|----------------------------------|
|----------------------------------|----------------------------------|
|-----------3-2----3--2---3-2------|-----------3-2----3--2---3-2------|
|-2-2-2-2---1-0----1--0---1-0------|-2-2-2-2---1-0----1--0---1-0------|
|-2-2-2-2--------------------------|-2-2-2-2--------------------------|
|
| E E E E E E E E  E  E E E E E Q    E E E E E E E E  E  E E E E E Q
|----------------------------------|----------------------------------|
|----------------------------------|----------------------------------|
|----------------------------------|----------------------------------|
|-----------3-2----3--2---3-2------|-----------3-2----3--2---3-2------|
|-2-2-2-2---1-0----1--0---1-0------|-2-2-2-2---1-0----1--0---1-0------|
|-0-0-0-0--------------------------|-0-0-0-0--------------------------|
|
| Gtr III
| W               +W                 W               +W
|-2---------------(2)--------------|-3---------------(3)--------------|
|----------------------------------|----------------------------------|
|----------------------------------|----------------------------------|
|----------------------------------|----------------------------------|
|----------------------------------|----------------------------------|
|----------------------------------|----------------------------------|


  E E E E E E E E  E  E E E E E Q    E E E E E E E E E E E E E E Q
|----------------------------------|--------------------------------|
|----------------------------------|--------------------------------|
|----------------------------------|--------------------------------|
|-----------3-2----3--2---3-2------|-----------3-2---3-2---3-2------|
|-2-2-2-2---1-0----1--0---1-0------|-2-2-2-2---1-0---1-0---1-0------|
|-2-2-2-2--------------------------|-2-2-2-2------------------------|
|
| E E E E E E E E  E  E E E E E Q    E E E E E E E E E E E E E E Q
|----------------------------------|--------------------------------|
|----------------------------------|--------------------------------|
|----------------------------------|--------------------------------|
|-----------3-2----3--2---3-2------|-----------3-2---3-2---3-2------|
|-2-2-2-2---1-0----1--0---1-0------|-2-2-2-2---1-0---1-0---1-0------|
|-0-0-0-0--------------------------|-0-0-0-0------------------------|
|
| W               +W                 W               Q   Q   Q   Q
|-6---------------(6)--------------|-7------------------------------|
|----------------------------------|--------------------------------|
|----------------------------------|--------------------------------|
|----------------------------------|--------------------------------|
|----------------------------------|--------------------------------|
|----------------------------------|--------------------------------|


  E E E E E E E E +E  E +E  E +E  E Q    E E E E E E E E +E  E +E  E +E  E Q
|--------------------------------------|--------------------------------------|
|--------------------------------------|--------------------------------------|
|-----0---2-----3-(3)-2-(2)-0-(0)------|-----0---2-----3-(3)-2-(2)-0-(0)------|
|-2-2---2---2-2-------------------2-0--|-2-2---2---2-2-------------------2-0--|
|--------------------------------------|--------------------------------------|
|--------------------------------------|--------------------------------------|
|
| Q   Q   Q   E E +E  E +E  E +E  E Q    Q   Q   Q   E E +E  E +E  E +E  E Q
|--------------------------------------|--------------------------------------|
|---------------4-(4)-3-(3)-1-(1)------|---------------4-(4)-3-(3)-1-(1)------|
|---------------------------------2-0--|---------------------------------2-0--|
|--------------------------------------|--------------------------------------|
|--------------------------------------|--------------------------------------|
|--------------------------------------|--------------------------------------|


  E E E E E E E E +E  E +E  E +E  E Q    E E E E E E E E +E  E +E  E +E  E Q
|--------------------------------------|--------------------------------------|
|--------------------------------------|--------------------------------------|
|-----0---2-----3-(3)-2-(2)-0-(0)------|-----0---2-----3-(3)-2-(2)-0-(0)------|
|-2-2---2---2-2-------------------2-0--|-2-2---2---2-2-------------------2-0--|
|--------------------------------------|--------------------------------------|
|--------------------------------------|--------------------------------------|
|
| Q   Q   Q   E E +E  E +E  E +E  E Q    Q   Q   Q   E E +E  E +E  E +E  E Q
|--------------------------------------|--------------------------------------|
|---------------4-(4)-3-(3)-1-(1)------|---------------4-(4)-3-(3)-1-(1)------|
|---------------------------------2-0--|---------------------------------2-0--|
|--------------------------------------|--------------------------------------|
|--------------------------------------|--------------------------------------|
|--------------------------------------|--------------------------------------|


  E E E E E E E E +E  E +E  E +E  E Q    E E E E E E E E +E  E +E  E +E  E Q
|--------------------------------------|--------------------------------------|
|--------------------------------------|--------------------------------------|
|-----0---2-----3-(3)-2-(2)-0-(0)------|-----0---2-----3-(3)-2-(2)-0-(0)------|
|-2-2---2---2-2-------------------2-0--|-2-2---2---2-2-------------------2-0--|
|--------------------------------------|--------------------------------------|
|--------------------------------------|--------------------------------------|
|
| Q   Q   Q   E E +E  E +E  E +E  E Q    Q   Q   Q   E E +E  E +E  E +E  E Q
|--------------------------------------|--------------------------------------|
|---------------4-(4)-3-(3)-1-(1)------|---------------4-(4)-3-(3)-1-(1)------|
|---------------------------------2-0--|---------------------------------2-0--|
|--------------------------------------|--------------------------------------|
|--------------------------------------|--------------------------------------|
|--------------------------------------|--------------------------------------|


  E E E E E E E E +E  E +E  E +E  E Q    E E E E E E E E +E  E +E  E +E  E Q
|--------------------------------------|--------------------------------------|
|--------------------------------------|--------------------------------------|
|-----0---2-----3-(3)-2-(2)-0-(0)------|-----0---2-----3-(3)-2-(2)-0-(0)------|
|-2-2---2---2-2-------------------2-0--|-2-2---2---2-2-------------------2-0--|
|--------------------------------------|--------------------------------------|
|--------------------------------------|--------------------------------------|
|
| Q   Q   Q   E E +E  E +E  E +E  E Q    Q   Q   Q   E E +E  E +E  E +E  E Q
|--------------------------------------|--------------------------------------|
|---------------4-(4)-3-(3)-1-(1)------|---------------4-(4)-3-(3)-1-(1)------|
|---------------------------------2-0--|---------------------------------2-0--|
|--------------------------------------|--------------------------------------|
|--------------------------------------|--------------------------------------|
|--------------------------------------|--------------------------------------|
|
| Gtr III
| W                                      E E E E E E E E +E  E +E  E +E  E Q
|--------------------------------------|-----3---5-----6-(6)-5-(5)-3-(3)------|
|--------------------------------------|-5-5---5---5-5-------------------5-3--|
|--------------------------------------|--------------------------------------|
|--------------------------------------|--------------------------------------|
|--------------------------------------|--------------------------------------|
|--------------------------------------|--------------------------------------|


  Gtrs I, II
  Q  Q  E E E E E E E E E E Q    Q  Q  E E E E E E E E E E Q
|------------------------------|------------------------------|
|------------------------------|------------------------------|
|------------------------------|------------------------------|
|---------3-2---3-2---3-2------|---------3-2---3-2---3-2------|
|---------1-0---1-0---1-0------|---------1-0---1-0---1-0------|
|------------------------------|------------------------------|


  Q  Q  E E E E E E E E E E Q    Q  Q  E E E E E E E E E E Q
|------------------------------|------------------------------*|
|------------------------------|------------------------------*|
|------------------------------|------------------------------*|
|---------3-2---3-2---3-2------|---------3-2---3-2---3-2------*|
|---------1-0---1-0---1-0------|---------1-0---1-0---1-0------*|
|------------------------------|------------------------------*|


Duration Legend
---------------
W - whole; H - half; Q - quarter; E - 8th; S - 16th; T - 32nd; X - 64th; a - acciaccatura
+ - note tied to previous; . - note dotted; .. - note double dotted
Uncapitalized letters represent notes that are staccato (1/2 duration)
Irregular groupings are notated above the duration line
Duration letters will always appear directly above the note/fret number it represents the
duration for.  Duration letters with no fret number below them represent rests.  Multi-
bar rests are notated in the form Wxn, where n is the number of bars to rest for.  Low
melody durations appear below the staff

Tablature Legend
----------------
 h   - hammer-on
 p   - pull-off
 b   - bend
 pb  - pre-bend
 r   - bend release (if no number after the r, then release immediately)
 /\  - slide into or out of (from/to "nowhere")
 s   - legato slide
 S   - shift slide
  - natural harmonic
[n]  - artificial harmonic
n(n) - tapped harmonic
 ~   - vibrato
 tr  - trill
 T   - tap
 TP  - trem. picking
 PM  - palm muting
\n/  - tremolo bar dip; n = amount to dip
 \n  - tremolo bar down
 n/  - tremolo bar up
/n\  - tremolo bar inverted dip
 =   - hold bend; also acts as connecting device for hammers/pulls
 <>  - volume swell (louder/softer)
 x   - on rhythm slash represents muted slash
 o   - on rhythm slash represents single note slash

Misc Legend
-----------
 |  - bar
||  - double bar
||o - repeat start
o|| - repeat end
*|  - double bar (ending)
 :  - bar (freetime)
 $  - Segno
 &  - Coda
Tempo markers -  = BPM(8/16=s8/s16), where s8 = swing 8ths, s16 = swing 16ths
Tap to rate this tab
# A B C D E F G H I J K L M N O P Q R S T U V W X Y Z