Song name
# A B C D E F G H I J K L M N O P Q R S T U V W X Y Z

Marty Friedman - West tab

Help us improve GuitareTab! Take a short survey!
-------------------------------------------------------------------------------
			     West - Marty Friedman
-------------------------------------------------------------------------------
Tabbed by: Mikey_1990
Email: Mikeyw2008@googlemail.com

Tuning:Standard


This is an amazing song took me a about an hour but i hope you like it any questions 
email :)

				***
e|----------------------------------------||-----------------------------------------------|
B|----------------------------------------||-----------------------/10--9--9-10--12/14-10~-|
G|-------9~---10^11r10--9~----------------||-------9~--9--9-10-----------------------------|
D|-/11-----------------------10^11r10--7~-||-/11----------------11-------------------------|
A|----------------------------------------||-----------------------------------------------|
E|----------------------------------------||-----------------------------------------------|

e|-----------------------||-------------12~-----------------------|
B|-------------------10~-||-12-10h12p10-----14-12-10h12p10----10~-|
G|-------6-7-9--9/11-----||--------------------------------11-----|
D|-7--9------------------||---------------------------------------|
A|-----------------------||---------------------------------------|
E|-----------------------||---------------------------------------|
               ***
e|---------------------------------------12~-----|
B|-10-10-12--12^14r12--10~--12/14--12-9----------|
G|-----------------------------------------------|
D|-----------------------------------------------|
A|-----------------------------------------------|
E|-----------------------------------------------|

Play the Above 3 times, on the second time switch to the neck pickup.
And on the third time at the end play

	  ***

  Then it goes into this...

e|----------------||-----------------------|---------|
B|----------5--8--||-------5--8--10--12/8~-|---8-10~-|
G|----5--7--------||--5--7-----------------|-9-------|
D|----------------||-----------------------|---------|
A|----------------||-----------------------|---------|
E|----------------||-----------------------|---------|

e|----7--8--10--7--8-||-7--------------------------------|
B|-------------------||----8--10~--8-----------------8~--|
G|-------------------||---------------10--8-----7--9-----|
D|-------------------||----------------------10----------|
A|-------------------||----------------------------------|
E|-------------------||----------------------------------|
  Repeat the above 4 times

  Then play this once
e|--------------------|
B|--------------------|
G|-/11-9~--10p9-----9-|
D|--------------/11---|
A|--------------------|
E|--------------------|
  Then do it all again exactly the same way and your done :)

  ill try tab the arpeggios and the little bits over the top soon:) thanks!

| /   slide up
| \   slide down
| h   hammer-on
| p   pull-off
| ~   vibrato
| +   harmonic
| x   Mute note
| *** PreBend
| ^   Bend
===============================================================================
Related for West tab