Song name
# A B C D E F G H I J K L M N O P Q R S T U V W X Y Z

Marty Friedman - Arrival tab

Help us improve GuitareTab! Take a short survey!
Author/Artist: Marty Friedman
Title: Arrival
Album: Introduction
Transcribed by: Azlan
Email: cadefoster117@hotmail.com
http://www.computerevo.com
http://guitarhero.computerevo.com

b = bend
v = vibrato
h = hammer on
p = pull of
/ \ = slide

1st lick
Clean/Distortion
-|----------------------------------------------------------------------------|
-|----------------------------------------------------------------------------|
-|-----6/9vvv-7vv-11-9vv-7-9vv--6-6-4------6-6vv-4-2-4-4/6\4------------------|
-|---7--------------------------------7vv--------------------2/4\2vvv---------|
-|-7--------------------------------------------------------------------------|
-|----------------------------------------------------------------------------|


------------------------------------------------------------------------------|
------------10vv-9bvv-9-7-9---------------------------------------------------|
----------9-----------------9-6-6---6/9vv-------------------11-9-7-6-4-2-2/4--|
-----7h11-------------------------7-------7-9b11-7-9-9/11-7-------------------|
-7h9--------------------------------------------------------------------------|
------------------------------------------------------------------------------|


-------|-------------|
-------|-------------|
-------|-4/6---------|
-2/4\2-|-----4/7vvv--|
-------|-------------|
-------|-------------|


2nd lick


Clean/Distortion
-|------------------------------------------------------------|---------------|
-|-------------------------------------------------------2-2--|---------------|
-|------------2-2-5/7----5-4-4h5p4----------------------------|-----7-7vv-----|
-|-7-6-5-4-3----------7------------7--5/7-2/5v--5/7vv--2------|-2/4-----------|
-|------------------------------------------------------------|---------------|
-|------------------------------------------------------------|---------------|

Distortion
-|----------------------------------------------------------------------------|
-|-5/-----------------------------------18--17-18p17-15--13-15p13-12----------|
-|----4/6-6/9-9/11-11/14-14/16-16-18-19---------------------------------------|
-|----------------------------------------------------------------------------|
-|----------------------------------------------------------------------------|
-|----------------------------------------------------------------------------|


-------------------------------------------------------9-9--------------------|
-12-13p12-10---------------------------------/10-10-10------------------------|
-------------14-14-12-12/14-9-9vvv---/9-9-9-----------------------------------|
------------------------------------------------------------------------------|
------------------------------------------------------------------------------|
------------------------------------------------------------------------------|


3rd lick
Distortion
-|----------------------------------------------------------------------------|
-|----------------------------------------------------------------------------|
-|-----8-8/11--9--11/13-11--9-11vv--8-8-6------8-8-6-4-6-6/8-6----------------|
-|---9------------------------------------9vv------------------4/6\4----------|
-|-9--------------------------------------------------------------------------|
-|----------------------------------------------------------------------------|


------------------------------------------------------------------------------|
--------------12--11b12-11-9-11-----------------------------------------------|
-----------11-------------------11-8-8---8/11-----------------------13-11-9---|
------9h13-----------------------------9-------9-11b12-9-11-11/13-9-----------|
-9h11-------------------------------------------------------------------------|
------------------------------------------------------------------------------|


------------------------------------------------------------------------------|
-----------------------------7bvv--7-5-4-4h5p4-2h4p2----/7--7-5-4bvv-2--------|
-8-6-4/6--6b-6b-6bvvv-4-6vv--------------------------4-----------------4------|
------------------------------------------------------------------------------|
------------------------------------------------------------------------------|
------------------------------------------------------------------------------|


--------------------------------------------7---------------------------------|
-------------------4bvv---4---4bvv-4----4/7-----------------------------------|
-4-6-6b-6b-6b-4---------4---4--------4----------------------------------------|
----------------4-------------------------------------------------------------|
------------------------------------------------------------------------------|
------------------------------------------------------------------------------|

http://www.computerevo.com
http://guitarhero.computerevo.com
Related for Arrival tab