Song name
# A B C D E F G H I J K L M N O P Q R S T U V W X Y Z

Marty Friedman - Corazon De Santiago tab

So I didn't tab out the entire thing, but this is the clean pretty part throughout about
of the song. pluss i have all the chords at the bottom that is used under the lead. I
im correct on all of this so their should be any bitching about it being wrong, and i 
put in all the bends and wammy bar spots, but you should be able to get that on your
I'll tab the rest out some other time.
  Thanks,
    Blaine M


|--------------------------------------------------------------------------|
|--------4-4[4~5~4]-2-----------------------4-4[4~5~4]-2-------------------|
|------4--------------4-3-4-4s6-4-6s8-----4--------------4-3-4-4s6-4-6s8-6-|
|-6--6---------------------------------6-----------------------------------|
|--------------------------------------------------------------------------|
|--------------------------------------------------------------------------|


|-----------------------------------------------------------------|
|-----------------------------------------------------------------|
|-4-6--3--4--4h6p4p3-4----------4--3[3~4~3]-----------4p3---------|
|----------------------6--------------------5-------6-----6-5-6---|
|-------------------------6-4-6---------------6-4-6---------------|
|-----------------------------------------------------------------|

|----------------------------------------------------------------|
|-----4[4~5/5~4]--2-----------------------------5[5~6~5]-4h5-5s7-|
|---4---------------4-3--4-4s6-4---6[6~7~6]--4-------------------|
|-6--------------------------------------------------------------|
|----------------------------------------------------------------|
|----------------------------------------------------------------|


|-6-7-9-9s11--9-7-9--6--7--7h9p7p6-7------------7-6-7---------------------|
|------------------------------------8--s10s8-7--------5-4h5p4-2-2s4-0--2-|
|-------------------------------------------------------------------------|
|-------------------------------------------------------------------------|
|-------------------------------------------------------------------------|
|-------------------------------------------------------------------------|


|--------------------------------------------------------------------------|
|-3-------7-7[7~8/8~7]-5-------------------7-7[7~8/8~7]-5------------------|
|-------7----------------7-6-7-9-7-11----7----------------7-6--7-9-11------|
|-----9--------------------------------9-----------------------------------|
|--------------------------------------------------------------------------|
|--------------------------------------------------------------------------|


|--------------------------------------------------------------------------|
|--------------------------------------------------------------------------|
|-9-7-9--6--7--7h9p7p6-7----------7--6------------7p6----------------------|
|------------------------9--------------8-------9-----9-8-9----------------|
|---------------------------9-7-9---------9-7-9----------------------------|
|--------------------------------------------------------------------------|
Tap to rate this tab
# A B C D E F G H I J K L M N O P Q R S T U V W X Y Z