Song name
# A B C D E F G H I J K L M N O P Q R S T U V W X Y Z

Marty Friedman - Ashita E No Sanka tab

-------------------------------------------------------------------------------
			     Ashita e No Sanka - Marty Friedman
-------------------------------------------------------------------------------
Tabbed by: Miguel Q (bustapr)   first tab \m/
Email:busta_pr@hotmail.com

Tuning: E Standard

note: timing is off by alot, best to have the actual track and listen to the parts.
whole song is in the key of Cm/D#, exce[t for 3 notes at 2:59

Gook Luck with the monster bend!

Clean

e|---------------------------------------------------------------------------|
B|--11/13---13/16------16/13---16--13h16p13h16p13/11--13p11-------13p11b13~--|
G|-----------------------------------------------------------12--------------|
D|---------------------------------------------------------------------------|
A|---------------------------------------------------------------------------|
E|---------------------------------------------------------------------------|

e|---------------------------------------------------------------------------|
B|------11-13/16b18~---/13--11-11pb13rb11b13~----/15-13-13pb15~--------------|
G|--/12----------------------------------------------------------------------|
D|---------------------------------------------------------------------------|
A|---------------------------------------------------------------------------|
E|---------------------------------------------------------------------------|

distortion

0:44

e|-----------------------------------------|
B|-----------------------------------------|
G|------8--10-10-12-10h12p10p8--10p8-------|
D|--/10------------------------------10-10-|
A|-----------------------------------------|
E|-----------------------------------------|

e|------------------------------------------------|
B|--------------------------------------11--------|
G|-------8--10-10-12-10h12p10-8---10-12----10b12~-|
D|--/10-------------------------------------------|
A|------------------------------------------------|
E|------------------------------------------------|

e|---------------------------------------------------------------------------|
B|----------------------------------------11--13--13~------------------------|
G|-------8--10-10-12-10h12p10-8---10--12-------------------------------------|
D|--/10----------------------------------------------------------------------|
A|---------------------------------------------------------------------------|
E|---------------------------------------------------------------------------|

clean

1:02

e|-------------------------------------------------------------------------------------|
B|---------8-6-------------------------------------------------------------------------|
G|--5-7-8------8-5pb7rb5-3----3/5-/8-7-5\3------3/5-5-\5-3-/3-----3/5-5-5-7-8-8-7-5-7~-|
D|--------------------------5----------------5------------------5----------------------|
A|-------------------------------------------------------------------------------------|
E|-------------------------------------------------------------------------------------|

e|---------------------------------------------------------------------------------------|
B|-------------6/8-6---------------------------------------------------------------------|
G|-----5-7-7/8-------8h10p8-7-3----3/5-/8-7~-5-/3---3-/5-5-\5-3-3---3/5-5-5/7-8-8-7-5-7--|
D|---5---------------------------5----------------5---------------5----------------------|
A|---------------------------------------------------------------------------------------|
E|---------------------------------------------------------------------------------------|

e|---------------------------------------------------------------------------|
B|-------6/8\6-8~------------------------6/8p6-8~----------------------------|
G|---3/5----------3/5--8-5pb7rb5-3-3/5-----------3/5-------------------------|
D|---------------------------------------------------------------------------|
A|---------------------------------------------------------------------------|
E|---------------------------------------------------------------------------|


e|----------------------------------------------------------------------------|
B|------------6/8p6-8----------------------6/8-6-8~---------------------------|
G|------3-3/5---------3/5--8-5pb7rb5-3-3/5----------3/5-----------------------|
D|---/5-----------------------------------------------------------------------|
A|----------------------------------------------------------------------------|
E|----------------------------------------------------------------------------|

Distortion

e|---------------------------------------------------------------------------|
B|---11~--13--13/16---16p13-16-13h16p13-11--13p11------/13-11-13~\-----------|
G|-------------------------------------------------12------------------------|
D|---------------------------------------------------------------------------|
A|---------------------------------------------------------------------------|
E|---------------------------------------------------------------------------|

e|---------------------------------------------------------------------------|
B|------------------11----------------------11-13-11b13~---------------------|
G|--/12-10-10-10/12----12-12-10-10-12~-/12-----------------------------------|
D|---------------------------------------------------------------------------|
A|---------------------------------------------------------------------------|
E|---------------------------------------------------------------------------|


e|---------------------------------------------------------------------------|
B|---11/13--13/16---\13-16-13h16p13-11-13p11------/13--11--13~---------------|
G|-------------------------------------------12------------------------------|
D|---------------------------------------------------------------------------|
A|---------------------------------------------------------------------------|
E|---------------------------------------------------------------------------|

e|--------------------------------------------------------------------------------|
B|-------------------------------------11--13-16-18pbr16b18~-------/13--11-13~----|
G|----12-12\10-10-8-7\3-3/5~---/12------------------------------------------------|
D|--------------------------------------------------------------------------------|
A|--------------------------------------------------------------------------------|
E|--------------------------------------------------------------------------------|

Clean

e|------------------------------------------------------------------------------|
B|------------/11-9-------------------------------------------------------------|
G|----8-10-12---------12--pb11r8-7-------8-9-(9)/12--10--/10-8------------------|
D|-----------------------------------10-----------------------------------------|
A|------------------------------------------------------------------------------|
E|------------------------------------------------------------------------------|


e|---------------------------------------------------------------------------|
B|-----------9--9----11\9-------------------------10--13-13p12p10h12~--------|
G|----10-12----------------12-12---8-10-12-12-12-----------------------------|
D|---------------------------------------------------------------------------|
A|---------------------------------------------------------------------------|
E|---------------------------------------------------------------------------|

e|---------10-11~-----13~----15~-------18~-----------------------------------|
B|---12-13-------------------------------------------------------------------|
G|---------------------------------------------------------------------------|
D|---------------------------------------------------------------------------|
A|---------------------------------------------------------------------------|
E|---------------------------------------------------------------------------|

e|----16-18-16-15-13---------------------------------------------------------------|
B|-------------------16-15-13------------------------------------------------------|
G|-----------------------------15-13-12--------------------------------------------|
D|--------------------------------------15-13-12-----------------------------------|
A|-----------------------------------------------15-13-----------------------------|
E|-----------------------------------------------------16--------------------------|

e|---------------------------3-4-3h4p3-------------------------------------------|
B|-------------------------3-----------6p4p3\1-3-1h3p1---------------------------|
G|-----------------------5-----------------------------3p1p0---------------------|
D|-------------3-----3h5-------------------------------------3p1p0---------------|
A|-------3--5-----5-------------------------------------------------3p1----------|
E|----/3----------------------------------------------------------------4-3------|


Distortion
e|---------------------------------------------------------------------------|
B|---11-13-13/16-----\13--16-13h16p13--11--13--11-----13--11--13~------------|
G|------------------------------------------------12-------------------------|
D|---------------------------------------------------------------------------|
A|---------------------------------------------------------------------------|
E|---------------------------------------------------------------------------|
 |
e|---------------------------------------------------------------------------|
B|---------------------11---------------------------11--13-11b13~------------|
G|---/12--10-10-10-12------12--12--10-10-12~---12----------------------------|
D|---------------------------------------------------------------------------|
A|---------------------------------------------------------------------------|
E|---------------------------------------------------------------------------|

e|---------------------------------------------------------------------------|
B|----11-13-13/16-----\13--16-13h16p13--11--13--11-----/13--11--13-----------|
G|-------------------------------------------------12------------------------|
D|---------------------------------------------------------------------------|
A|---------------------------------------------------------------------------|
E|---------------------------------------------------------------------------|


e|---------------------------------------------------------------------------------|
B|---------------------------------------11--13--16---16pb18~----13-11-13--13a.h.--|
G|----/12--12-10--8--7---3---5----/12----------------------------------------------|
D|---------------------------------------------------------------------------------|
A|---------------------------------------------------------------------------------|
E|---------------------------------------------------------------------------------|
 |
e|---------------------------------------------------------------------------|
B|---11--13---16----15---------11--13---16----15-----------------------------|
G|---------------------12------------------------12--------------------------|
D|---------------------------------------------------------------------------|
A|---------------------------------------------------------------------------|
E|---------------------------------------------------------------------------|

e|--------------------------------------------------------------------------------------|
B|--------------------------------------------------------------------------------------|
G|---------8--8/10-10--12--10h12p10\8--10p8-------------8--8/10-10--12--10h12p10\8------|
D|----/10-----------------------------------10-10--/10----------------------------------|
A|--------------------------------------------------------------------------------------|
E|--------------------------------------------------------------------------------------|

e|----------------------------------------------------------------------------------------|
B|-------------11-----------------------------------------------11--13-(13)b15~rb13-------|
G|----/10--12------10b12~------8--10--10-12--10h12p10\8--10--12---------------------------|
D|-------------------------/10------------------------------------------------------------|
A|----------------------------------------------------------------------------------------|
E|----------------------------------------------------------------------------------------|

e|---------------------------------------------------------------------------|
B|--------15b16~--(16)rb15--13-----------------12b13~--12-11-8--6b8~---------|
G|---12------------------------12-13--12b13~---------------------------------|
D|---------------------------------------------------------------------------|
A|---------------------------------------------------------------------------|
E|---------------------------------------------------------------------------|

e|---------8--11--8------------8-11------8-11/13-------11-13------11-13/18---|
B|---8--11-----------11---8-11------8-11---------11-13-------11-3------------|
G|---------------------------------------------------------------------------|
D|---------------------------------------------------------------------------|
A|---------------------------------------------------------------------------|
E|---------------------------------------------------------------------------|

e|--------15-18--------15-18-15----------15-18/22--20--22--22pb23br22b23~----|
B|--16-18--------16-18----------18-16-18-------------------------------------|
G|---------------------------------------------------------------------------|
D|---------------------------------------------------------------------------|
A|---------------------------------------------------------------------------|
E|---------------------------------------------------------------------------|

e|--(23)br22--22--20--20-22p20--18b20~-------------------------------------------|
B|--------------------------------------20--18-18pb20~--20b23~--20--23--23pb25~--|
G|-------------------------------------------------------------------------------|
D|-------------------------------------------------------------------------------|
A|-------------------------------------------------------------------------------|
E|-------------------------------------------------------------------------------|

e|-------------------20-----20-23------20-23-20-23------20---24pb27~---------|
B|--(25)rb23--20-23-----23---------23---------------23-----------------------|
G|---------------------------------------------------------------------------|
D|---------------------------------------------------------------------------|
A|---------------------------------------------------------------------------|
E|---------------------------------------------------------------------------|

e|--20-20--23-23b25~-23b25~---20b22~-----------------------------------------------------|
B|------------------------------------18b20~--20b22~--20--23--23b25~rb23--20--23b25~-----|
G|---------------------------------------------------------------------------------------|
D|---------------------------------------------------------------------------------------|
A|---------------------------------------------------------------------------------------|
E|---------------------------------------------------------------------------------------|

e|-------8-6---------------6-3--------------------------3h6p3-----3h6p3------3h6p3--------------|
B|-----------8-6---------------6-3-----6-3---------6b8--------6b8-------6b8--------6b8~---------|
G|---------------7-5---------------5-3-----5-3--------------------------------------------------|
D|---------------------------------------------5-3----------------------------------------------|
A|----------------------------------------------------------------------------------------------|
E|----------------------------------------------------------------------------------------------|

clean
e|----------------------------------------------------------------|
B|----------6/8-6-8--------------------------6/8--6--8------------|
G|----3/5-----------3/5--8--5pb7rb5-3--3/5--------------3/5-------|
D|----------------------------------------------------------------|
A|----------------------------------------------------------------|
E|----------------------------------------------------------------|

e|---------------------------------------------------------------------------|
B|-------------6/8-6--8--13---11--9--8---6-----------------------------------|
G|------3--5-----------------------------------------------------------------|
D|----5----------------------------------------------------------------------|
A|---------------------------------------------------------------------------|
E|---------------------------------------------------------------------------|

distortion
e|---------------------------------------------------------------------------|
B|----------------11b13~-----------------------------------------------------|
G|---8--10-12-10-------------------------------------------------------------|
D|---------------------------------------------------------------------------|
A|---------------------------------------------------------------------------|
E|---------------------------------------------------------------------------|



************************************

| /   slide up
| \   slide down
| h   hammer-on
| p   pull-off
| ~   vibrato
| +   harmonic
| x   Mute note
| ^   Bend
| pb  Pre-bend--------  10pb12 = whole step prebend
| rb  Bend release----  10pb12rb10
| pbr Pre-bend release
| brb Bend release bend

************************************
Tap to rate this tab
# A B C D E F G H I J K L M N O P Q R S T U V W X Y Z