Song name
# A B C D E F G H I J K L M N O P Q R S T U V W X Y Z

Marty Friedman - Devil Take Tomorrow tab

------------------------------------------------------------------------------------------

		     DEVIL TAKE TOMORROW (intro) - Marty Friedman
-------------------------------------------------------------------------------

#----------------------------------PLEASE NOTE---------------------------------#
#This file is the author's own work and represents their interpretation of the #
#song. You may only use this file for private study, scholarship, or research. #
#------------------------------------------------------------------------------#

Tabbed by:thefoldarsoldar
Email:brandonce@gmail.com

This song is off Friedman's latest album entitled "Loudspeaker," and if you are familiar 
Marty's style, you know he's a master of vibrato, bends, and unusual string techniques. 
to the song to get these details perfect.

Note: the bars dividing the song do not create accurate measures. Again, listen to the 
for the rhythm.

Tuning:E standard

e|----------------------------------|------------------------------------------|
b|----------------------------------|------------------------------------------|
g|----------------------------------|--/8-8-10-(11)pb13rb13~~-13r11-------10/8-|
d|---6/8~~~-8-9-11-6~gb~br/4~~------|------------------------------------------|
a|-4--------------------------------|------------------------------------------|
e|----------------------------------|------------------------------------------|


e|-------------------------------------------------|---------------------------|
b|-------------------------------------------------|---------------------------|
g|-8-10--------------------------------------------|----6~-8/11~-8-------------|
d|------6/8~~-8/11-------6-8-8-9------/6~~gb7r-4~--|-/8--------------6b7r6/4~~-|
a|-------------------9-------------6~~-------------|---------------------------|
e|-------------------------------------------------|---------------------------|

e|-------------------------------------|--------------------------------------|
B|-------------------------------------|--------------------------------------|
G|--/8-10-11-b13~-11.-10.-11p10-8------|---3/11~-----------8------------------|
D|----------------------------------11~|~--------8p6-8/11~--6br-/4~~----------|
A|-------------------------------------|--------------------------------------|
e|-------------------------------------|--------------------------------------|

key:

/         slide
~        vibrato
b         bend
gb       gradual bend
r         release (a bend)
()pb    prebend, then pick
.        play slightly behind the beat
h        hammer on
p        pull off
===============================================================================
Tap to rate this tab
# A B C D E F G H I J K L M N O P Q R S T U V W X Y Z