Song name
# A B C D E F G H I J K L M N O P Q R S T U V W X Y Z

Marty Stuart - Tempted tab

tempted by marty stuart

this is what i used for chords. sounds pretty good for me.
not sure what they are called theory wise.this is my first tab any feedback would be 
appreciated thanks
VERSE

e--------------------------------------------|
B--------------------------------------------|
G------------------------3-3-3-3---5-5-5-5---|
D---3-3-3-3-3-3-3-3------3-3-3-3---5-5-5-5---|
A---3-3-3-3-3-3-3-3------1-1-1-1---3-3-3-3---|
E---1-1-1-1-1-1-1-1--------------------------|

CHORUS

e---------------------------------------------------------------|
B---------------------------------------------------------------|
G-------------------5-5-5-5-5-5-5----------------3-3-3-3-3-3----|
D---3-3-3-3-3-3-3---5-5-5-5-5-5-5--3-3-3-3-3-3---3-3-3-3-3-3----|  repeat
A---3-3-3-3-3-3-3---3-3-3-3-3-3-3--3-3-3-3-3-3---1-1-1-1-1-1----|
E---1-1-1-1-1-1-1------------------1-1-1-1-1-1------------------|
Tap to rate this tab
# A B C D E F G H I J K L M N O P Q R S T U V W X Y Z