Song name
# A B C D E F G H I J K L M N O P Q R S T U V W X Y Z

Martyr Ad - The Last Words Of Any Meaning I Diagnosis tab

     "The Last Words Of Any Meaning - I. Diagnosis"
     As recorded by Martyr AD
     (from the album "On Earth As It Is In Hell")
     Copyright (c) Victory Records Inc.


                Tabbed out by left2decay AKA Erick...I'f you have any feed back
                my email is icm_61@yahoo.com
                feel free to comment and/or rate.
                This is MY FIRST TAB, by the way.


***This song is in Drop B. (B, F#, B, E, G#, C#)

***Martyr AD doesn't play in Drop C in this album. Don't believe me? Listen to "On Earth,
     As It Is In Hell" and play along. Every song, with the exception of this one, uses 
B in it.
     Check it out...


  this Interlude is very simple...but cool.

     x = SILENCE

***RIFF 1, Both Guitars
||--------------------------------------|
||--------------------------------------|
||--------------------------------------|
||1-1-1-1-1-1-1-1--1-1x---1-1-1-1--1-1x-| (repeat 3X)
||1-1-1-1-1-1-1-1--1-1x---1-1-1-1--1-1x-|
||1-1-1-1-1-1-1-1--1-1x---1-1-1-1--1-1x-|


              Here's that Harmony:

***RIFF 2 Guitar 1            ***RIFF 2, Guitar 2
||--------------||              ||----------------||
||--------------||              ||----------------||
||--------------||              ||----------------||
||-------4-----x||              ||-8--6--11--10--x|| (1X)
||-6--4--------x||              ||---------------x||
||----------1--x||              ||---------------x||


1. RIFF 1 goes 3X, then RIFF 2 goes 1X. Do that pattern three times.
2. The fourth time you play RIFF 1, play it all the way through once,
and then play only the first half of RIFF 1. look at the example below


||----------------------||
||----------------------||
||----------------------||
||1-1-1-1-1-1-1-1--1-1x-|| (1X)
||1-1-1-1-1-1-1-1--1-1x-||
||1-1-1-1-1-1-1-1--1-1x-||


THE END!
It's idiot proof!
:)
Tap to rate this tab
# A B C D E F G H I J K L M N O P Q R S T U V W X Y Z