Song name
# A B C D E F G H I J K L M N O P Q R S T U V W X Y Z

Martyr Ad - The Dead Reprise tab

Martyr AD - The Dead Reprise
On Earth As It Is In Hell (2004)
Tabbed By ruker (Varuker@gmail.com)
Drop B Tuning BF#BEG#C#

--------------
Key:
--------------
.   Palm Mute
~   Vibrato
h   Hammer-On
p   Pull-Off
b   Bend
r   Release
/   Slide Up
\   Slide Down
( ) Tied Note
--------------

Left Guitar - Upper
Right Guitar - Lower


Riff A
||------------------|-----------------|-----------------|------------------|
||*-----------------|-----------------|-----------------|-----------------*|
||------------------|-----------------|-----------------|------------------|
||------------------|-----------------|-----------------|------------------|
||*---8-8---8-8-7-7-|---8-8---8-8-7-7-|---5-5---5-5-3-3-|---3-3---3-3-011-*|
||--0-----0---------|-0-----0---------|-5-----5---------|-3-----3------h---|
|                                                                          |
|                                                                          |
||------------------|-----------------|-----------------|------------------|
||*-----------------|-----------------|-----------------|-----------------*|
||------------------|-----------------|-----------------|------------------|
||------------------|-----------------|-----------------|------------------|
||*---8-8---8-8-7-7-|---8-8---8-8-7-7-|---5-5---5-5-3-3-|---3-3---3-3-011-*|
||--0-----0---------|-0-----0---------|-5-----5---------|-3-----3------h---|


|------------------|-----------------|-----------------|------------------|-----------------||
|*-----------------|-----------------|-----------------|-----------------*|-----------------||
|------------------|-----------------|-----------------|------------------|-----------------||
|------------------|-----------------|-----------------|------------------|-----------------||
|*---8-8---8-8-7-7-|---8-8---8-8-7-7-|---5-5---5-5-3-3-|---3-3---3-3-011-*|-(1)-------------||
|--0-----0---------|-0-----0---------|-5-----5---------|-3-----3------h---|-----------------||
|                                                                         |                  |
|                                                                         |                  |
|------------------|-----------------|-----------------|------------------|-----------------||
|*-----------------|-----------------|-----------------|-----------------*|-----------------||
|------------------|-----------------|-----------------|------------------|-----------------||
|----7-7---7-7-5-5-|---7-7---7-7-5-5-|---7-7---7-7-5-5-|---7-7---7-7-788--|-(8)-------------||
|*-----------------|-----------------|-----------------|--------------h--*|-----------------||
|--0-----0---------|-0-----0---------|-5-----5---------|-3-----3----------|-----------------||



Riff B
||------------------|-----------------|-----------------|-----------------|-----------------|
||*-----------------|-----------------|-----------------|-----------------|-----------------|
||------------------|-----------------|-----------------|-----------------|-----------------|
||------------------|-----------------|-----------------|-----------------|-----------------|
||*-0-0-000-0-0-000-|-0-0-000-0-0-8---|-0-0-000-0-0-000-|-0-0-000-6-0-11--|-0-0-000-0-0-000-|
||--0-0-000-0-0-000-|-0-0-000-0-0-8---|-0-0-000-0-0-000-|-0-0-000-6-0-11--|-0-0-000-0-0-000-|
|     . ...   . ...     . ...   .         . ...   . ...     . ...   .         . ...   . ... |
|                                                                                           |
||------------------|-----------------|-----------------|-----------------|-----------------|
||*-----------------|-----------------|-----------------|-----------------|-----------------|
||------------------|-----------------|-----------------|-----------------|-----------------|
||------------------|-----------------|-----------------|-----------------|-----------------|
||*-0-0-000-0-0-000-|-0-0-000-0-0-8---|-0-0-000-0-0-000-|-0-0-000-6-0-11--|-0-0-000-0-0-000-|
||--0-0-000-0-0-000-|-0-0-000-0-0-8---|-0-0-000-0-0-000-|-0-0-000-6-0-11--|-0-0-000-0-0-000-|
      . ...   . ...     . ...   .         . ...   . ...     . ...   .         . ...   . ... 

|-----------------|-----------------|--------------------|-------------|-------------||
|-----------------|-----------------|-------------------*|-------------|-------------||
|-----------------|-----------------|--------------------|-------------|-------------||
|-----------------|-----------------|--------------------|-------------|-------------||
|-0-0-000-0-0-8---|-0-0-000-0-0-000-|-11h0-10h0-8h0-6---*|-(6)---------|-(6)---------||
|-0-0-000-0-0-8---|-0-0-000-0-0-000-|-11h0-10h0-8h0-6----|-(6)---------|-(6)---------||
|   . ...   .         . ...   . ...      .    .   .      |                            |
|                                                        |                            |
|-----------------|-----------------|--------------------|-------------|-------------||
|-----------------|-----------------|-------------------*|-------------|-------------||
|-----------------|-----------------|--------------------|-------------|-------------||
|-----------------|-----------------|--------------------|-------------|-------------||
|-0-0-000-0-0-8---|-0-0-000-0-0-000-|-11h0-10h0-8h0-6---*|-(6)---------|-(6)---------||
|-0-0-000-0-0-8---|-0-0-000-0-0-000-|-11h0-10h0-8h0-6----|-(6)---------|-(6)---------||
    . ...   .         . ...   . ...      .    .   .


Riff A
||-----------------|-----------------|-----------------|-----------------|
||-----------------|-----------------|-----------------|-----------------|
||-----------------|-----------------|-----------------|-----------------|
||-----------------|-----------------|-----------------|-----------------|
||---8-8---8-8-7-7-|---8-8---8-8-7-7-|---5-5---5-5-3-3-|---3-3---3-3-011-|
||-0-----0---------|-0-----0---------|-5-----5---------|-3-----3------h--|
|                                                                        |
|                                                                        |
||-----------------|-----------------|-----------------|-----------------|
||-----------------|-----------------|-----------------|-----------------|
||-----------------|-----------------|-----------------|-----------------|
||-----------------|-----------------|------REST-------|------REST-------|
||-(6)-------------|-(6)-------------|-----------------|-----------------|
||-(6)-------------|-(6)-------------|-----------------|-----------------|
   *Start Fade-out

|-----------------|-----------------|-----------------|-----------------|
|-----------------|-----------------|-----------------|-----------------|
|-----------------|-----------------|-----------------|-----------------|
|-----------------|-----------------|-----------------|-----------------|
|---8-8---8-8-7-7-|---8-8---8-8-7-7-|---5-5---5-5-3-3-|---3-3---3-3-011-|
|-0-----0---------|-0-----0---------|-5-----5---------|-3-----3------h--|
|                                                                       |
|                                                                       |
|-----------------|-----------------|-----------------|-----------------|
|-----------------|-----------------|-----------------|-----------------|
|-----------------|-----------------|-----------------|-----------------|
|------REST-------|------REST-------|------REST-------|------REST-------|
|-----------------|-----------------|-----------------|-----------------|
|-----------------|-----------------|-----------------|-----------------|


|-----------------|-----------------|-----------------|-----------------||
|-----------------|-----------------|-----------------|-----------------||
|-----------------|-----------------|-----------------|-----------------||
|-----------------|-----------------|-----------------|-----------------||
|-0---------------|-(0)-------------|-(0)-------------|-(0)-------------||
|-0---------------|-(0)-------------|-(0)-------------|-(0)-------------||
|                   *Start Fade-out                                      |
|                                                                        |
|-----------------|-----------------|-----------------|-----------------||
|-----------------|-----------------|-----------------|-----------------||
|-----------------|-----------------|-----------------|-----------------||
|------REST-------|------REST-------|------REST-------|------REST-------||
|-----------------|-----------------|-----------------|-----------------||
|-----------------|-----------------|-----------------|-----------------||
Tap to rate this tab
# A B C D E F G H I J K L M N O P Q R S T U V W X Y Z