Song name
# A B C D E F G H I J K L M N O P Q R S T U V W X Y Z

Martyr Ad - Last Words Of Any Meaningi Diagnosis tab

TUNING DROP C  THE NICE INTERLUDE OF THE CD
http://www.myspace.com/martyrad
.= palm muteing
^=upstroke

Riff 1

D|-------------------------------------|
A|-------------------------------------|
F|-------------------------------------|
C|0-0-0-0-0-0-0-0---0-0----0-0-0-0-0-0-|
G|0-0-0-0-0-0-0-0---0-0----0-0-0-0-0-0-|
C|0-0-0-0-0-0-0-0---0-0----0-0-0-0-0-0-|
  . . . . . . . .   . .    . . . . . .
    ^   ^   ^   ^            ^   ^   ^

Riff 2

F|-------------|
A|-------------|
D|-------------|
C|-7--8--5--7--|
G|-5--6--3--5--|
C|-------------|

End
Tap to rate this tab
# A B C D E F G H I J K L M N O P Q R S T U V W X Y Z