Song name
# A B C D E F G H I J K L M N O P Q R S T U V W X Y Z

Martyrdom - Malodorous tab

This song is played in Drop A and is also really fun to play along to. Stay shred.

(0:00-0:15)
 |-----------------------------------------------------|
 |-----------------------------------------------------|
 |-----------------------------------------------------|
 |----------------------------------------7h10p7-------|
 |----5-3-6-3h5p3--3-3h5--5-5h6--5-5h65h8--------------|
 |--00-0-0-0-----55-5---55-5---44-4--------------------|
    .. . . .     .. .   .. .   .. . 

 |-----------------------------------------------------|
 |-----------------------------------------------------|
 |-----------------------------------------------------|
 |------1-4-4---1-4----14--47-7h10p7-----10h13p10------|x2
 |----6------5-----5-36--69-----------912--------------|
 |--00-0-0-0--00-0------------------00-----------------|
    .. . . .  .. .                  .. 

(0:16-0:33)
 |-----------------------------------------------------|
 |-----------------------------------------------------|
 |-----------------------------------------------------|
 |--0~--00------------------33-------------------------|
 |--0~--00-1--4-55------44------55------44--11---------|
 |--0~--00-4--7---887788--88--88--887788--77--44-------| 
        ..        ......  ..  ..  ......  ..  ..

(0:34-0:49)
 |-------------------------------------|
 |-------------------------------------|
 |-------------------------------------|
 |--0-4-3-1-------0-4-3-1--------------|
 |--0-4-3-1-1-4---0-4-3-1-1--4---------|
 |--0-4-3-1--0--4-0-4-3-1-4--7---------|
    . . . .  .    . . . . 

(0:50-1:06)
 |------------------------------------------|
 |------------------------------------------|
 |------------------------------------------|
 |---------676--------------676-------------|
 |--4757874---767457-4757874---767457-------|
 |------------------------------------------|


 |------------------------------------------|
 |------------------------------------------|
 |---------67976------------67976-----------|
 |------578-----875------578-----875--------|x2
 |--8545-----------8-8545-----------8-------|
 |------------------------------------------|
 

(1:07-1:32)
 |------------------------------------------|
 |------------------------------------------|
 |------------------------------------------|
 |--1111-1-11-0000-0000-0000-0-00-0000-0000-0000-0-00-1-1--1-1-1-1111-1-1--1-1-1-1111-|
 |--0000-0-00-0000-0000-0000-0-00-0000-0000-0000-0-00-0-0--0-0-0-0000-0-0--0-0-0-0000-|
 |--1111-1-11-0000-0000-0000-0-00-0000-0000-0000-0-00-1-1--1-1-1-1111-1-1--1-1-1-1111-|

(1:33-1:36)
Tapping. *TIP* Bar the 12 and 14 and just tap 17 and 15 with your pick hand
 |----------------------------------------------------------------------------------------------|
 |---t17p14------t17p14t17p14------t17p14------t17p14t17p4------t17p14------t17p14t17p14-------|
 |--------t15p12------------t15p12------t15p12-----------t15p12------t15p12--------------t15p12-|
 |--11------------------------------------------------------------------------------------------|
 |--00------------------------------------------------------------------------------------------|
 |--11------------------------------------------------------------------------------------------|


(1:37-1:53)
Drill picking
 |------------------------------------------|
 |------------------------------------------|
 |------------------------------------------|
 |----------7--6--2--3----------------------|x3
 |--7--8--5------------4--------------------|
 |------------------------------------------|

(1:54-2:02)
 |-----------------------------------|
 |-----------------------------------|
 |-----------------------------------|
 |--8~----0~--10~--8~----0~--5~------|
 |--8~----0~--10~--8~----0~--5~------|
 |--8~----0~--10~--8~----0~--5~------|

(2:03-2:20)
 |----------------------------------------------|
 |----------------------------------------------|
 |----------------------------------------------|
 |----------------------------------------------|
 |--8--8--8-8--8--8-8--8--8-8-10----10----10----|
 |---88-88-8-88-88-8-00-00-0-0--1010--1010--10--|
     .. .. . .. .. . .. .. . .  . .   . .   .


 |--------------------------------------|
 |--------------------------------------|
 |--------------------------------------|
 |--------------------------------------|
 |--8--8--8-8--8--8-8--8--8-8-5--5--5---|
 |---88-88-8-88-88-8-00-00-0-0-55-55-5--|
     .. .. . .. .. . .. .. . . .. .. .


(2:20-2:23)
Guitar Fill
 |-----------------------------|
 |--565------------------------|
 |-----76----------------------|
 |-------8754---------912------|
 |-----------58-811811---------|
 |-----------------------------|

(2:24-2:32)
 |-------------------------------------------|
 |-------------------------------------------|
 |-------------------------------------------|
 |--------------------------5--7--7-8--------|
 |--7--8--4--5---875457--8-------------------|
 |---00-00-00-045------00-00-00-00-0---------|
     .. .. .. ...      .. .. .. .. .

(2:33-2:43)
 |------------------------------------|
 |------------------------------------|
 |------------------------------------|
 |------------------------------------|
 |--7-----8-----4-5-----5-5-----------|
 |---0-000-0-000-0-0-000-0-8-5-7-4----|
     . ... . ... . . ... . 


(2:44-2:47)
 |-------------------------------------------|
 |-------------------------------------------|
 |-------------------------------------------|
 |--------------------------5--7--7-8~-------|
 |--7--8--4--5---875457--8-------------------|
 |---00-00-00-045------00-00-00-00-0---------|
     .. .. .. ...      .. .. .. .. .


(2:48-3:03)
 |-----------------------------------------------------|
 |-----------------------------------------------------|
 |-----------------------------------------------------|
 |----------------------------------------7h10p7-------|
 |----5-3-6-3h5p3--3-3h5--5-5h6--5-5h65h8--------------|
 |--00-0-0-0-----55-5---55-5---44-4--------------------|
    .. . . .     .. .   .. .   .. .

 |-----------------------------------------------------|
 |-----------------------------------------------------|
 |-----------------------------------------------------|
 |------1-4-4---1-4----14--47-7h10p7-----10h13p10------|x2
 |----6------5-----5-36--69-----------912--------------|
 |--00-0-0-0--00-0------------------00-----------------|
    .. . . .  .. .                  ..


(3:04-3:19)
 |-----------------------------------------------------|
 |-----------------------------------------------------|
 |-----------3-------3---------------------------------|
 |--0~-------2-3-1-1-2-3-1-1-111-111--0--0~------------|
 |--0~-------1-2-0-0-1-2-0-0-000-000-4---0~------------|
 |--0~---------3-1-1---3-1-1-111-111-----0~------------|
               . . .   . . . ... ... 

(3:20-3:59)
 |---------------------------------------------------------------|
 |---------------------------------------------------------------|
 |------3-------3------------------3-------3---------------------|
 |---0--2-3-1-1-2-3-1-1-111-111--0-2-3-3-1-2-3-1-1-1-1-1-1-1--0--|
 |--4---1-2-0-0-1-2-0-0-000-000-4--1-2-2-0-1-2-0-0-0-0-0-0-0-4---|
 |--------3-1-1---3-1-1-111-111------3-3-1---3-1-1-1-1-1-1-1-----|
          . . .   . . . ... ...      . . .   . . . . . . . . 

 |---------------------------------------------------------------|
 |---------------------------------------------------------------|
 |--3-------3------------------3-------3-------------------------|
 |--2-3-1-1-2-3-1-1-111-111--0-2-3-3-1-2-3-1-1---1-1------0-0~---|
 |--1-2-0-0-1-2-0-0-000-000-4--1-2-2-0-1-2-0-0---0-0-----4--0~---|
 |----3-1-1---3-1-1-111-111------3-3-1---3-1-1---1-1--------0~---|
      . . .   . . . ... ...      . . .   . . .   . . 


Any questions hit me up on myspace. myspace.com/codsterrrrr

BAND LINK -> WWW.MYSPACE.COM/MARTYRDOM916
Tap to rate this tab
# A B C D E F G H I J K L M N O P Q R S T U V W X Y Z