Song name
# A B C D E F G H I J K L M N O P Q R S T U V W X Y Z

Martyrdom - An End To Purgery tab

Old martyrdom song re-done. 


(0:00-0:13)
Intro
|---------------------------------------------------|
|---------------------------------------------------|
|---------------------------------------------------|
|---------------------------------------------------|x2
|--5--5p33h6-5-2-2h3h5--5--5p33h6-5-2-2h3h5---------|
|---------------------------------------------------|

Harmony for Intro
|---------------------------------------------------|
|---------------------------------------------------|
|---------------------------------------------------|
|--4--4p22h5-4-1-1h2h4--4--4p22h5-4-1-1h2h4---------|x2
|---------------------------------------------------|
|---------------------------------------------------|

(0:14-0:31)
2nd part of Intro
|---------------------------------------------|
|---------------------------------------------|
|---------------------------------------------|
|--0~--00001~--5~--4~--0014-0~--000-000-0~----|x2
|--0~--00001~--5~--4~--0014-0~--000-000-0~----|
|--0~--00001~--5~--4~--0014-0~--000-000-0~----|
       ....            ....     ... ...

Lead for 2nd part of Intro
|---------------------------------------------------|
|---------------------------------------------------|
|--7----777\56\8---8\7---7\4---4/5/7----------------|
|--x-00-xxx-xx-x-0-x-x-0-x-x-00x-x-x--000-000-0~----|x2
|--5-00-555\38\6-0-6\5-0-5\2-002/3/5--000-000-0~----|
|----00----------0-----0-----00-------000-000-0~----|
     ..          .     .     ..       ... ...

(0:31-0:34)
|-------------------|
|-------------------|
|-------------------|
|--2-3-0-1-0-1-0----|
|--2-3-0-1-0-1-0----|
|--2-3-0-1-0-1-0----|
       .   .   

(0:34-0:49)
Riff 1 is fast as fuck
|------------------------------------------------------------|
|------------------------------------------------------------|
|------------------------------------------------------------|
|------------------3-6---------------------0-0-4-0-0-4-------|
|--2---------2-5---------2-5-2---------1-4-0-0-4-0-0-4-------|
|---3-0-1-0-1---0-1---0-1-----3-0-1-0-1----0-0-4-0-0-4-------|
    . . . . .   . .   . .     . . . . .    . .   . .

2nd Part of Riff 1
|------------------------------------------------------------|
|------------------------------------------------------------|
|------------------------------------------------------------|
|------------------3-6------------------------5-8---5-8------|x2
|--2---------2-5---------2-5-2---------1-4-------------------|
|---3-0-1-0-1---0-1---0-1-----3-0-1-0-1----5-7---5-7---------|
    . . . . .   . .   . .     . . . . .    . .   . .

(0:49-0:51)
|-----------------|
|-----------------|
|-----------------|
|--0-1-0-1-0-1----|
|--0-1-0-1-0-1----|
|--0-1-0-1-0-1----|
   . . . . . .

(0:51-1:05)
Breakdown
|----------------------------|
|----------------------------|
|----------------------------|
|--0-1-0-1-0-1-------1-1-1---|x4
|--0-1-0-1-0-1-------0-0-0---|
|--0-1-0-1-0-1---0-0-1-1-1---|
   . . . . . .       . . . 

(1:06-1:09)
End of Breakdown
|------------------------------|
|------------------------------|
|------------------------------|
|--1-1-1-1-1-1~----1-0-3-3-3---|
|--0-0-0-0-0-0~----0-0-2-2-2---|
|--1-1-1-1-1-1~----1-0-3-3-3---|
   . . . . . .     . . . . .

(1:09-1:23)
Riff 2
|--------------------------------------|
|--------------------------------------|
|--------------------------------------|
|-------8--7---------------8--7--------|x4
|--454--------7----4h7454--------------|
|-----54-44-44-43h6------54-44-7-7\----|
      .. .. .. .. .      .. .. 

(1:24-1:26)
|----------------------|
|----------------------|
|----------------------|
|----2-2h5-------------|
|-----------1-1h4------|
|--11-1---11-1---------|
   .. .   .. .

(1:26-1:33)
Breakdown Riff
|------------------------------------------|
|------------------------------------------|
|------------------------------------------|
|----2-2h5--------1~---2-2h5---------------|
|-----------1-1h4-1~----------1-1h4--1h4---|
|--11-1---11-1----1~-11-1---11-1---11------|
   .. .   .. .       .. .   .. .   ..

|------------------------------------|
|------------------------------------|
|------------------------------------|
|----2-2h5--------1~---2-2h5---------|
|-----------1-1h4-1~----------1-1h4--|
|--11-1---11-1----1~-11-1---11-1-----|
   .. .   .. .       .. .   .. .

(1:34-1:40)
|------------------------------------------|
|------------------------------------------|
|------------------------------------------|
|----2-2h5--------1~---2-2h5---------------|x2
|-----------1-1h4-1~----------1-1h4--1h4---|
|--11-1---11-1----1~-11-1---11-1---11------|
   .. .   .. .       .. .   .. .   ..

(1:41-1:43)
|-----------------|
|-----------------|
|-----------------|
|--0-4-3-0-5-4----|
|--0-4-3-0-5-4----|
|--0-4-3-0-5-4----|
   . . . . . .

(1:44-1:58)
|-----------------------------------------------------------------------|
|-----------------------------------------------------------------------|
|--------------------------------7---------------7----------------------|
|--0-1-0-1-5-4-0---0-1-0-1-5-4-0-6-0-1-0-1-5-4-0-6-0-1-0-1-5-4-0--------|
|--0-1-0-1-5-4-0-2*0-1-0-1-5-4-0-5-0-1-0-1-5-4-0-5-0-1-0-1-5-4-0-2*-----|
|--0-1-0-1-5-4-0---0-1-0-1-5-4-0---0-1-0-1-5-4-0---0-1-0-1-5-4-0--------|
   . . . . . . .   . . . . . . .   . . . . . . .   . . . . . . .

|--------------------------------------------------------------------------|
|--------------------------------------------------------------------------|
|--------------------------------7---------------7-----------------7~--6---|
|--0-1-0-1-5-4-0---0-1-0-1-5-4-0-6-0-1-0-1-5-4-0-6-0-1-0-1-5-4-0-1-6~--5---|
|--0-1-0-1-5-4-0-2*0-1-0-1-5-4-0-5-0-1-0-1-5-4-0-5-0-1-0-1-5-4-0-1-5~--4---|
|--0-1-0-1-5-4-0---0-1-0-1-5-4-0---0-1-0-1-5-4-0---0-1-0-1-5-4-0-1---------|
   . . . . . . .   . . . . . . .   . . . . . . .   . . . . . . . .

(2:00-2:12)
Riff 3
|------------------------------------------------------------------------|
|------------------------------------------------------------------------|
|------------------------------------------------------------------------|
|--000000------------------0-0-0000-000-111---0-0-0000-------------------|
|--000000---------5p3p0-5~-0-0-0000-000-0005~-0-0-0000---------------5~--|
|--000000--3p0-1p0----0-3~-0-0-0000-000-1113~-0-0-0000-3p0-1p0-6p5p0-3~--|
   ......             .    . . .... ... ...   . . ....

(2:13-2:15)
Riff 4
|----------------------------|
|----------------------------|
|----------------------------|
|--------3-------------------|
|--3p2-0--5-3-2-3h5-5~-------|
|----------------------------|


(2:16-2:30)
Riff 5
|------------------------------------------------------------------|
|------------------------------------------------------------------|
|------------------------------------------------------------------|
|-----000000--------------6-666666-3-3333--------3-----------------|
|--5~-000000--------5p3p0-6-666666-3-3333--3p2-0--5-3-2-3h5-5~-----|
|--3~-000000-3p0-1p0------6-666666-3-3333--------------------------|
      ......                ......   ....  

|------------------------------------------------------------------|
|------------------------------------------------------------------|
|------------------------------------------------------------------|
|-----000000--------------6-666666-3-3333--------3-----------------|
|--5~-000000--------5p3p0-6-666666-3-3333--3p2-0--5-3-2-3h5--------|
|--3~-000000-3p0-1p0------6-666666-3-3333-------------------3~-----|
      ......                ......   ....

(2:31-2:45)
Riff 6
|-----------------------------------------|
|-----------------------------------------|
|-----------------------------------------|
|-----0-0-0--111---0-0-0------------------|x2
|--5~-0-0-0--000-5-0-0-0------------------|
|--3~-000000-111-3-000000-3-0-6-5-0-3~----|
      . . .  ...   . . .    

(2:46-2:52)
Breakdown Build up
|----------------------------------|
|----------------------------------|
|----------------------------------|
|--0~----00-00--00-00-00-00-000----|
|--0~----00-00--00-00-00-00-000----|
|--0~----00-00--00-00-00-00-000----|
         .. ..  .. .. .. .. ...

(2:53-3:17)
Ending Breakdown
|---------------------------------------------------------------------------|
|---------------------------------------------------------------------------|
|---------------------------------------------------------------------------|
|--0000-00-00-0-0-0-0-0-0-00-00--00-00-00-00-0000--0000-00-00-0-0-0-0-0-0---|
|--0000-00-00-0-0-0-0-0-0-00-00--00-00-00-00-0000--0000-00-00-0-0-0-0-0-0---|
|--0000-00-00-0-0-0-0-0-0-00-00--00-00-00-00-0000--0000-00-00-0-0-0-0-0-0---|
   .... .. .. . . . . . . .. ..  .. .. .. .. ....  .... .. .. . . . . . . 

(3:19-3:41)
|-----------------------------------------------------|
|-----------------------------------------------------|
|-----------------------------------------------------|
|---11-11--11-11-11-11-1111--1111-11-11-1-1-1-1-1-1---|
|---00-00--00-00-00-00-0000--0000-00-00-0-0-0-0-0-0---|
|---11-11--11-11-11-11-1111--1111-11-11-1-1-1-1-1-1---|
    .. ..  .. .. .. .. ....  .... .. .. . . . . . .



Any question hit me up. www.myspace.com/codsterrrrr
Tap to rate this tab
# A B C D E F G H I J K L M N O P Q R S T U V W X Y Z