Song name
# A B C D E F G H I J K L M N O P Q R S T U V W X Y Z

Martyrdom - Supremacy tab

My favorite song to play live, really heavy and really fast :)
Played in DROP A

(0:00-0:08)
Riff 1
|--------------------------------------------------------|
|--------------------------------------------------------|
|--------------------------------------------------------|
|--------87----------------------------------------------|
|--8--8----10875---4-4---5-5---7-7---8-88--8--12--12-----|
|---00-00-------777-7-888-8-444-4-555-5--00-00--00--00---|
    .. ..       ... . ... . ... . ... .  .. ..  ..  ..

Riff 1 continued..
|----------------------------------------------|
|----------------------------------------------|
|----------------------------------------------|
|-----7-7------8--8----------------------------|
|------------------------10--10------12--12----|
|--888-8-101010-10-111111--11--111111--11------|
   ... . . . .   . . . .    .  . . .   .

(0:09-0:21)
Riff 2
|------------------------------------------------------------|
|------------------------------------------------------------|
|--2-0-------------------------------------------------------|
|-----3-2----------------------------------------------------|
|--------5-4-5-5-5-1-1-1-4-4-4---------5-5-5-1-1-1-4-4-4-----|
|-------------0-0-0-0-0-0-0-0-111444555-0-0-0-0-0-0-0-0-0----|
              . . . . . . . .           . . . . . . . . .

(0:21-0:24)
|----------------------------------|
|----------------------------------|
|----------------------------------|
|--0~---------------------------00-|
|--0~---------------------------00-|
|--0~---------------------------00-|
                                ..

(0:25-0:36)
Riff 3
|--------------------------------------------|
|--------------------------------------------|
|--------------------------------------------|
|----000-000---000-000---000-000-------------|
|----000-000---000-000---000-000-8p7-4h7-----|
|--5-000-000-8-000-000-4-000-000-------------|
     ... ...   ... ...   ... ...


|----------------------------------------------|
|----------------------------------------------|
|---------------------------------2-0----------|
|----000-000---000-000---000-000------3-2------|
|----000-000---000-000---000-000----------5-4--|
|--5-000-000-8-000-000-4-000-000---------------|
     ... ...   ... ...   ... ...


|--------------------------------------------|
|--------------------------------------------|
|--------------------------------------------|
|----000-000---000-000---000-000-------------|
|--1-000-000-5-000-000-0-000-000-5p4-1h4-----|
|----000-000---000-000---000-000-------------|
     ... ...   ... ...   ... ...

|----------------------------------------------|
|----------------------------------------------|
|---------------------------------2-0----------|
|----000-000---000-000---000-000------3-2------|
|--1-000-000-5-000-000-0-000-000----------5-4--|
|----000-000---000-000---000-000---------------|
     ... ...   ... ...   ... ...

(0:36-0:38)
|-------------------------|
|-------------------------|
|-------------------------|
|-2-1-3-2-1--2-1-3-2-1----|
|-2-1-3-2-1--2-1-3-2-1----|
|-2-1-3-2-1--2-1-3-2-1----|
  . . . . .  . . . . .

(0:39-0:45)
Breakdown
|--------------------------------------|
|--------------------------------------|
|--------------------------------------|
|-2-1-3-2-1-2-1-3-2-1-2-1-3-2-1--------|x2
|-2-1-3-2-1-2-1-3-2-1-2-1-3-2-1-2*-----|
|-2-1-3-2-1-2-1-3-2-1-2-1-3-2-1--------|
  . . . . . . . . . . . . . . .

(0:45-0:55)
Breakdown
|-----------------------------------------------------------|
|-----------------------------------------------------------|
|-----------------------------------------------------------|
|-2-1-3-2-1----1-2-1-3-2-1----2-1-3-2-1-1111-1-2-1-3-2-1----|
|-2-1-3-2-1----1-2-1-3-2-1-2*-2-1-3-2-1-0000-1-2-1-3-2-1-2*-|
|-2-1-3-2-1----1-2-1-3-2-1----2-1-3-2-1-1111-1-2-1-3-2-1----|
  . . . . .    . . . . . .    . . . . . .... . . . . . .



|--------------------------------------|
|--------------------------------------|
|-2-1-3-2-1-2-1-3-2-1-2-1-3-2-1--------|x2
|-2-1-3-2-1-2-1-3-2-1-2-1-3-2-1-2*-----|
|-2-1-3-2-1-2-1-3-2-1-2-1-3-2-1--------|
  . . . . . . . . . . . . . . .

(0:55-1:14)
Riff 4
|-------------------------------------|
|------------------------------ -------|
|-------------------------------------|
|--0~---------------------------------|
|--0~-----5--5--5--7--4--4--8757545---|
|--0~------00-00-00-00-00-00----------|
           .. .. .. .. .. ..
Riff 4 continued..
|---------------------------------------------------------|
|---------------------------------------------------------|
|---------------------------------------------------------|
|---------------------------------------------------------|x2
|-5--5--5--7--4--4--4--8--5--5--5--7--4--4--8757545-------|
|--00-00-00-00-00-00-00-00-00-00-00-00-00-00--------------|
   .. .. .. .. .. .. .. .. .. .. .. .. .. ..
(1:14-1:20)
Drilling as fast as you possibly can
|-----------------|
|-----------------|
|-----------------|
|-----------------|x2
|-----------------|
|--8--12--7--11---|

(1:20-1:27)
Harmony lead
|----------------------------------------|
|----------------------------------------|
|----------------------------------------|
|----------------------------------------|x2
|--7871087-13121012810-7871087-454754----|
|----------------------------------------|


(1:27-1:30)
|-------------|
|-------------|
|-------------|
|-------------|
|--5~----4~---|
|--8~----7~---|


(1:30-1:43)
Breakdown again
|-------------------------------------------------|
|-------------------------------------------------|
|-------------------------------------------------|
|-----11-11-11-1-11-1-11------1111-1-00-4-00------|x2
|-----00-00-00-0-00-0-00------0000-1-00-4-00-2*---|
|--3\-11-11-11-1-11-1-11--3\--1111-1-00-4-00------|
      .. .. .. . .. . ..      ....   ..   ..

(1:44-1:55)
Drilling
|----------------------------------------|
|----------------------------------------|
|----------------------------------------|
|---------------------------0-2-1--------|
|--44----------44-----------0-2-1-2*-----|
|----7755887744--7755887744-0-2-1--------|
                            . . .

|----------------------------------------|
|----------------------------------------|
|---------------------------6/7-7/9------|
|---------------------------x-x-x-x------|
|--44----------44-----------4/5-5/7------|
|----7755887744--7755887744--------------|
            

(1:56-2:08)
Heavy as fuck breakdown
|----------------------------------------------------|
|----------------------------------------------------|
|----------------------------------------6/7-7/9-----|
|--00-00---00-00--0000-0-0-00-00---00-00-x-x-x-x-----|x2
|--00-00---00-00--0000-0-0-00-00---00-00-4/5-5/7-----|
|--00-00---00-00--0000-0-0-00-00---00-00-------------|
   .. ..   .. ..  .... . . .. ..   .. ..
(2:09-2:21)
2 4 2 4 4 2 4 2
|----------------------------------------------------|
|----------------------------------------------------|
|----------------------------------6/7-7/9-10/9-6----|
|--00-0000-00-0000-0000-00-0000-00-x-x-x-x-x-x--x----|x2
|--00-0000-00-0000-0000-00-0000-00-4/5-5/7-8\7--4----|
|--00-0000-00-0000-0000-00-0000-00-------------------|
   .. .... .. .... .... .. .... ..

(2:21-2:34)
Riff 5 is hard as fuck i'm not even gunna lie
|-------------------------------------------|
|-------------------------------------------|
|----------69------69-96------96------------|
|-------578---58-58-----85-85---875---------|x3
|-----47---------------------------74-------|
|--578-------------------------------875----|
   .......... .. .... .... .. ..........

(2:34-2:39)
|--------------------------------------|
|--------------------------------------|
|--------------------------------------|
|--0000-6-5----0-----0----0000-0-0000--|
|--0000-6-5-6*-0-5p4-0-7*-0000-0-0000--|
|--0000-6-5----0-----0----0000-0-0000--|
   .... . .    .     .    .... . ....


(2:40-2:46)
4 2 2 2 2 4 2 2 4 2 4
|----------------------------------------------|
|----------------------------------------------|
|----------------------------------------------|
|--0000-00-00-00-00-0000-00-00-0000-00-0000----|x2
|--0000-00-00-00-00-0000-00-00-0000-00-0000----|
|--0000-00-00-00-00-0000-00-00-0000-00-0000----|
   .... .. .. .. .. .... .. .. .... .. ....
(2:47-2:54)
|----------------------------------------------|
|----------------------------------------------|
|----------------------------------------------|
|--0000-00-00-00-00-0000-00-00-0000-00-0000----|x2
|--1111-11-11-11-11-1111-11-11-1111-11-1111----|
|--0000-00-00-00-00-0000-00-00-0000-00-0000----|
   .... .. .. .. .. .... .. .. .... .. ....

(2:55-3:14)
Sounds like the vocalist needs to take a huge shit breakdown
|--------------------------------------------------------|
|--------------------------------------------------------|
|--------------------------------------------------------|
|--0000--00--00--00--00--0000--00--00--0000--00--0000----|x2
|--1111--11--11--11--11--1111--11--11--1111--11--1111----|
|--0000--00--00--00--00--0000--00--00--0000--00--0000----|
   ....  ..  ..  ..  ..  ....  ..  ..  ....  ..  ....
 




Any questions hit me up on myspace www.myspace.com/codsterrrrr
Tap to rate this tab
# A B C D E F G H I J K L M N O P Q R S T U V W X Y Z