Song name
# A B C D E F G H I J K L M N O P Q R S T U V W X Y Z

Martyrdom - Path Of Abomination tab

This song is played in drop A as well. 

(0:00-0:18)
|-----------------------------------------------------------------------------|
|-----565---------------------------------------------------------------------|
|-------------------------------------------------------------------1215------|
|--047---7-----000-000----000-000-----1114-000-----1114-000-----1114----1114--|
|---------8-12-000-000-12-000-000-1013-----000-1013-----000-1013--------------|
|-----------12-000-000-8--000-000----------000----------000-------------------|
               ... ...    ... ... . . . .  ... . . . .  ...    

(Harmony)
|---------------|
|------8108-----|
|---------------|
|--0710----10---|
|------------12-|
|---------------|
   ...     . .


(0:19-0:28)
|-----------------------------------|
|-----------------------------------|
|-----------------------------------|
|-------------------3---------------|
|--2---1---2---1---2-2---1--3-22----|
|---1-2-----1-2-2-1---1-2----1------|
    . .     . . . .   . .    .


(0:29-0:48)
|-----------------------------------|
|--------------------66-------------|
|--------------------99-------------|
|--000--000--000-000---01321--------|x2
|--000--000--000-000---01321--------|
|--000--000--000-000---01321--------|
   ...  ...  ... ...   .....

|----------------------------------------------------|
|------------------6------------------------66-------|
|------------------9--22--------------------99-------|
|--000--000--00-00--0-66-33-000--000--00-00---01321--|
|--000--000--00-00--0----77-000--000--00-00---01321--|
|--000--000--00-00--0-------000--000--00-00---01321--|
   ...  ...  .. ..  .       ...  ...  .. ..   .....

|-------------------------------|
|------------------6------------|
|------------------9--22--------|
|--000--000--00-00--0-66-33-----|
|--000--000--00-00--0----77-----|
|--000--000--00-00--0-----------|
   ...  ...  .. ..  .

|-----------------------------------|
|--------------------66-------------|
|--------------------99-------------|
|--000--000--000-000---01321--------|x2
|--000--000--000-000---01321--------|
|--000--000--000-000---01321--------|
   ...  ...  ... ...   .....

(0:49-0:59)
|--------------------------------------------|
|--------------------------------------------|
|--------------------------------------------|
|--7~---6~---7~---8~---7~---6~---7~---8~-----|
|--7~---6~---7~---8~---7~---6~---7~---8~-----|
|--7~---6~---7~---8~---7~---6~---7~---8~-----|


(1:00-1:02)
Guitar Fill
|----------------------------------------------|
|----------------------------111314111314------|
|------------------9101291012------------------|
|--------8101181011----------------------------|
|--578578--------------------------------------|
|----------------------------------------------|
  
        

(1:03-1:19)
Riff 1
|------------------------------------------------------------------|
|------------------------------------------------------------------|
|------------------------------------------------------------------|
|-----------------------------------------7-8---7-8----------------|x2
|-----8-7---8-7------10--12------10--12---------------5-4---5-4----|
|--888-8-888-8-111111--11--111111--11--555-5-555-5-444-4-444-4-----|
   ... . ... . . . .   .   . . .   .   ... . ... . ... . ... .

(1:20-1:20)
|-----------|
|-----565---|
|--------7--|
|--047------|
|-----------|
|-----------|

(1:21-1:31)
Drilling
|------------------------|
|------------------------|
|------------------------|
|------------------------|x2
|---------12--13---------|
|--8--11----------11-----|

(1:32-1:42)
More Drilling
|------------------------|
|------------------------|
|------------------------|
|------------------------|x2
|---------12--13--16-----|
|--8--11-----------------|

(1:43-1:57)
Riff 2
|-------------------------------------------------------------------|
|-------------------------------------------------------------------|
|-------------------------------------------------------------------|
|--3333-0-0-3333-0-33-333333-0-0-3333-0-3-3-3333-0-0-3333-0-33-33---|
|--7050-0-0-7050-0-77-777050-0-0-7050-0-7-7-7050-0-0-7050-0-77-77---|
|-------0-0------0-----------0-0------0----------0-0------0---------|
        . .      .           . .      .          . .      .

(1:58-2:19)
Start opening the pit Riff
|----------------------------------------------------|
|----------------------------------------------------|
|----------------------------------------------------|
|--------------0232011------------000-0-0-0-0~-------|
|--2-1~-2------0121000-2-1~-2-----000-0-0-0-0~-------|
|---0----0-2*--0232011--0----0-2--000-0-0-0-0~-------|
    .    .     .......  .    . .  ... . . .


(2:19-2:21)
|----------------|
|----------------|
|----------------|
|--00------------|
|--00-3--6--5----|
|--00--0--0------|
   ..  .  .

(2:22-2:29)
Riff 3
|-----------------------------------------|
|-----------------------------------------|
|-----------------------------------------|
|----0-1---4-5---1-0--0-1---4-5---0-1-----|
|--------3-----3----------3-----3---------|
|--11-1-1-1-1-1-1-1--0-0-0-0-0-0-0-0------|
   .. . . . . . . .  . . . . . . . .

(2:30-2:33) 
Drill picking
|-----------------------------------------|
|-----------------------------------------|
|-----------------------------------------|
|----0-1---4-5---1-0--0-1---4-5---0-1-----|
|--------3-----3----------3-----3---------|
|--11-------------------------------------|
   ..

(2:34-2:45)
Riff 3 again
|-----------------------------------------|
|-----------------------------------------|
|-----------------------------------------|
|----0-1---4-5---1-0--0-1---4-5---0-1-----|x3
|--------3-----3----------3-----3---------|
|--11-1-1-1-1-1-1-1--0-0-0-0-0-0-0-0------|
   .. . . . . . . .  . . . . . . . .

(2:46-2:52)
|-------------------------------------------------------------------|
|-------------------------------------------------------------------|
|-------------------------------------------------------------------|
|--1111-1--1111-1111-1-1-1--1111--1111-1111-1-1-1-0000-0000-0000----|
|--1111-1--1111-1111-1-1-1--1111--1111-1111-1-1-1-0000-0000-0000----|
|--1111-1--1111-1111-1-1-1--1111--1111-1111-1-1-1-0000-0000-0000----|
   .... .  .... .... . . .  ....  .... .... . . . .... .... ....

(2:53-3:09)
|--------------------------------------------------------------|
|--------------------------------------------------------------|
|--------------------------------------------------------------|
|--11111--11111-11111--0-0-0----3213211----0-0-0----3213211----|
|--00000--00000-00000--0-0-0----2102100----0-0-0----2102100----|
|--11111--11111-11111--0-0-0-2--3213211----0-0-0-2--3213211----|
   .....  ..... .....  . . .    .......    . . .    .......

(3:10-3:29)
|-----------------------------------------------------------------------|
|-----------------------------------------------------------------------|
|--------------------------------------------------------------5-7------|
|--0-0-0----1111-3213211-11--11--0-0-0----321321---------4-5-------0~---|
|--0-0-0----0000-2102100-00--00--0-0-0----210210--5---3------3-----0~---|
|--0-0-0-2--1111-3213211-11--11--0-0-0-2--321321---111-11-1-1-1----0~---|
   . . .    .... ....... ..  ..  . . .    ......   ... .. . . .    


Any question hit me up on myspace www.myspace.com/codsterrrrr
Tap to rate this tab
 
# A B C D E F G H I J K L M N O P Q R S T U V W X Y Z