Song name
# A B C D E F G H I J K L M N O P Q R S T U V W X Y Z

Martyrdom - Lineal Demise tab

Intro
Lead Guitar
|------11----11----11----11----11----10----10----10----10----10------|
|--1515--1515--1515--1515--1515--1414--1414--1414--1414--1414--------|
|--------------------------------------------------------------------|
|--------------------------------------------------------------------|
|--------------------------------------------------------------------|
|--------------------------------------------------------------------|

Intro
Rhythm
|-------------------------------------------------------------------------|
|-------------------------------------------------------------------------|
|----------------4------------------------------4-------------------------|
|--0-0-00--0-000-8-0-000-0-0-000--0-0-00--0-000-8-0-000-0-0-1-2-0-0-00----|
|--6-0-00--0-000---0-000-4-0-000--6-0-00--0-000---0-000-4-0-1-2-6-0-00----|
|----0-00--0-000---0-000---0-000----0-00--0-000---0-000---0-1-2---0-00----|


|-----------------------------------------------------------|
|-----------------------------------------------------------|
|-----------------------------------------------------------|
|--1-0-0-0-0000-1-0-0-1-0-0-1-0-0-0-0000-1-0-0-1-0-0--------|
|--0-1-1-1-1111-0-1-1-0-1-1-0-1-1-1-1111-0-1-1-0-1-1--------|
|--1-0-0-0-0000-1-0-0-1-0-0-1-0-0-0-0000-1-0-0-1-0-0--------|


|--------------------------------------------------|
|--------------------------------------------------|
|--------------------------------------------------|
|--000000000---0-00--0-00-000000000~--000001-1-1---|
|--000000000---0-00--0-00-000000000~--000000-0-0---|
|--000000000---0-00--0-00-000000000~--000001-1-1---|


|-------------------5------------------|
|------------------4-------------------|
|-----------------7--------------------|
|--2-0-1----3-2-1-----3-2-0-1~---------|
|--2-0-1-2*-3-2-1-----3-2-0-1~---------|
|--2-0-1----3-2-1-----3-2-0-1~---------|


|------------------------------|
|------------------------------|
|------------------------------|
|--1---111---------001~--------|
|--0---000---------001~--------|
|--1---111--00-00--001~--------|



|----------------------------------------------------------------------------|
|----------------------------------------------------------------------------|
|-------------------4------------------------------4-------------------------|
|-----0-0-00--0-000-8-0-000-0-0-000--0-0-00--0-000-8-0-000-0-0-1-2-0-0-00----|
|-----6-0-00--0-000---0-000-4-0-000--6-0-00--0-000---0-000-4-0-1-2-6-0-00----|
|-------0-00--0-000---0-000---0-000----0-00--0-000---0-000---0-1-2---0-00----|
Tap to rate this tab
# A B C D E F G H I J K L M N O P Q R S T U V W X Y Z