Song name
# A B C D E F G H I J K L M N O P Q R S T U V W X Y Z

Martyrdom - Slaying Giants tab

Soo this is definitely the most difficult martyrdom song we wrote and i guess the most 
so good luck!

Tuning - Drop A
 * = bend.


(0:00-0:11)
Drilling Intro
|--------------------------------------------|
|--------------------------------------------|
|------------------------------5--3--2-------|
|------7--------5----7-----------------3-----|
|--5-----8--4-----7----8--7--5---------------|
|----8--------7------------------------------|


|---------------------------------------------6--5---|
|----------------------------------------6--5--------|
|------------------------------7--6------------------|
|------7--------5----7--------------8--7-------------|
|--5-----8--4-----7----8--7--5-----------------------|
|----8--------7--------------------------------------|

(0:12-0:35)
Riffing
|--------------------------------------------------------|
|--------------------------------------------------------|
|--------------------------------------------------------|
|--------7-----------5-----7-----------5--3--2-----------|
|--5--5-----8--4--4-----7-----8--7--5-----------3--------|
|---88-88-88-88-77-77-77-77-00-00-00-00-00-00-00-00------|

|---------------------------------------------666555---|
|---------------------------------------666555---------|
|---------------------------777666---------------------|
|--------7-----------5------------888777---------------|x2
|--5--5-----8--4--4-----7------------------------------|
|---88-88-88-88-77-77-77-77----------------------------|

(0:36-0:45)
|--------------------------------------------------------------|
|--------------------------------------------------------------|
|--------------------------------------------------------------|
|-----------------7------------------------------7-------------|
|--7-4----4-5-7-8---8-7-5-8-7-5-4-7-4----4-5-7-8---8-7-5-4-----|
|------7-4----------------------------7-4----------------------|

|------------------------------------------------------------------------|
|------------------------------------------------------------------------|
|------------------------------------------------------------------------|
|-----------------7------------------------------7--------11-1-1-11-1----|
|--7-4----4-5-7-8---8-7-5-8-7-5-4-7-4----4-5-7-8---8-7-5--11-1-1-11-1----|
|------7-4----------------------------7-4-----------------11-1-1-11-1----|

(0:46-0:54)
|---------------------------------------------------------------------|
|-------------5-6-5---------------------------------------------------|
|-------2-----------7-6-----------------------------------------------|
|-----------------------8-7-------7-----------7-------------7---------|
|--4-1-4--4-1---------------8-5-8---8-5-8-5-8---8-5-------------------|
|---------------------------------------------------11-8-11---11-8----|

|--10-13-10-----------------------------------------------------------------|
|-----------11------------------------------------------------5-6-5---------|
|--------------10---------------------------------------------------7-6-----|
|-----------------12----------7-----------7------------7----------------8-7-|
|--------------------13-8-5-8---8-5-8-5-8---8-5-----------------------------|
|-----------------------------------------------11-8-11--11-8---------------|

|-----------------------------|
|-----------------------------|
|-----------------------------|
|--------7-----------7--------|
|--8-5-8---8-5-8-5-8---8-5----|
|-----------------------------|

(0:54-0:57)
|---------------------------------------------------|
|---------------------------------------------------|
|---------------------------------------------------|
|--3-----2---3-7-----5---5-8-----7-----0-0--0-0-0---|
|----1-1---1-----4-4---4-----5-5---5-5-0-0--0-0-0---|
|--------------------------------------0-0--0-0-0---|


(0:57-1:10)
|-----------------------------------------------------------------|
|----------------------565----------------------------------------|
|-------------------------76--------------------------------------|
|--3--2-3-7--5-5-8--7-------87-3--2-3-7--5-5-8--7--0578p7---------|
|---11-1---44-4---55-55---------11-1---44-4---55-55------8--------|
|-----------------------------------------------------------------|

|---------------------------------------------------------------------------|
|----------------------565--------------------------------------------------|
|-------------------------76------------------------------------------------|
|--3--2-3-7--5-5-8--7-------87-3--2-3-7--5-5-8--7--0578p7--7~---------------|
|---11-1---44-4---55-55---------11-1---44-4---55-55------8-8~-000-0-4~------|
|-------------------------------------------------------------000-0-7~------|


(1:11-1:17)
Main Riff
|------------------------------------------------|
|------------------------------------------------|
|------------------------------------------------|
|--------------------7-------7-----5-------------|
|--5-------5-------5---8-5-0---8-5---7-4-0-------|
|----8-7-0---8-7-0-------------------------------|


|------------------------------------------------|
|------------------------------------------------|
|------------------------------------------------|
|--------------------7-------7-----5-------------|
|--5-------5-------5---8-5-0---8-5---7-4-0-------|
|----8-7-0---8-7-0--------------------------1*---|

(1:18-1:30)
Octave lower main riff
|------------------------------------------------|
|------------------------------------------------|
|------------------------------------------------|
|--------------------2-------2-----5-------------|x2
|--1-------1-------1---4-1-0---4-1---7-4-0-------|
|----4-1-0---4-1-0-------------------------------|

|------------------------------------------------|
|------------------------------------------------|
|------------------------------------------------|
|--------------------7-------7-----5-------------|x2
|--5-------5-------5---8-5-0---8-5---7-4-0-------|
|----8-7-0---8-7-0-------------------------------|


(1:31-1:34)
Have fun with this one
|-----------------------------------------------11-8-11-14-11-14--------|
|------------------------------10-7-10-13-11-13-------------------------|
|----------------8-5-8-11-8-11------------------------------------------|
|--7-4-7-10-7-10-------------------------------------------------3-2----|
|----------------------------------------------------------------2-1----|
|----------------------------------------------------------------3-2----|
                                                                                         
                                                              .   .

(1:35-1:46)
|-----------------------------|
|-----------------------------|
|-----------------------------|
|--3-2--------3-2-------------|x4
|--2-1--------2-1-----3-------|
|--3-2-774433-3-2-4410-4------|

(1:47-2:00)
|------------------------------------------------------------------------------------|
|------------------------------------------------------------------------------------|
|------------------------------------------------------------------------------------|
|--3-2-2--3-2----------3-2-2--3-2---------3-2-2--3-2---------3-2-2-3-2---------------|
|--2-1-1--2-1-----3----2-1-1--2-1---------2-1-1--2-1-----3---2-1-1-2-1-----3---------|
|--3-2-2--3-2-4410--4--3-2-2--3-2-000000--3-2-2--3-2-4410-4--3-2-2-3-2-4410-4-1*-----|


(2:01-2:07)
|------------------------------------------------|
|------------------------------------------------|
|------------------------------------------------|
|--------------------2-------2-----5-------------|x2
|--1-------1-------1---4-1-0---4-1---7-4-0-------|
|----4-1-0---4-1-0-------------------------------|

(2:08-2:09)
Lead before clean part.
|-------7-10-12-9------12-15-12-------15-18-------|
|-----------------11-14---------14-17-------------|
|--7-10-------------------------------------------|
|-------------------------------------------------|
|-------------------------------------------------|
|-------------------------------------------------|


(2:11-2:15)
|--6~---|
|--4~---|
|--7~---|
|--4~---|
|-------|
|-------|

(2:15-3:09)
Clean part
|--------6-----------------6-------------6----------------------------|
|------4---4-----------4-----4---4-----4---4---------------4----------|
|----7-------7---7-------7-----7-----7-------7---7-----7-----7---7----|
|--5-----------5---5-5-------------4-----------4---4-4---4-----4------|x8
|---------------------------------------------------------------------|
|---------------------------------------------------------------------|


(3:10-3:26)
Riff out of clean.
|-------------------------------------------------------------------|
|------------------7-8-11-7-----------------------------------------|
|------------------x-x-x--x---------------------3-6---------6-9-----|
|--8~---888888888--4-5-8--4--4444444444-------2-----------5---------|
|--5~---555555555------------1111111111-0-1-4-------0-4-7-----------|
|--5~---555555555------------1111111111-----------------------------|

|---------------------------------------------------------------|
|--------------7-8-11-7-----------------------------------------|
|--------------x-x-x--x---------------------3-6---------6-9-----|
|---888888888--4-5-8--4--4444444444-------2-----------5---------|
|---555555555------------1111111111-0-1-4-------0-4-7-----------|
|---555555555------------1111111111-----------------------------|

(3:27-3:38)
Drilling riff
|--------------------------------------------------------------|
|--------------------------------------------------------------|
|------------------------------------------3-6---------6-9-----|
|-------------4-5-8--4-------------------2-----------5---------|x2
|----------------------------------0-1-4-------0-4-7-----------|
|---555555555-----------1111111111-----------------------------|


(3:39-3:56)
Semi breakdown
|----------------------------------------------------------------------------|
|----------------------------------------------------------------------------|
|----------------------------------------------------------------------------|
|------------------------2--2-2-2-2-2-2-2---------------3-2-1------------22--|
|--5-------5-------5-----1--1-1-1-1-1-1-1--55----88-44--2-1-0------------11--|
|----8-7-0---8-7-0---2*--2--2-2-2-2-2-2-2-----77--------3-2-1--2*--11-1--22--|


|-------------------------------------------------------------|
|-------------------------------------------------------------|
|-------------------------------------------------------------|
|--2-2-2-2-2-2-2-2-2--------------3-2-1--222-222-222-222------|
|--1-1-1-1-1-1-1-1-1--55----88-44-2-1-0--111-111-111-111------|
|--2-2-2-2-2-2-2-2-2-----77-------3-2-1--222-222-222-222------|


(3:57-4:15)
About to breakdown
|-------------------------------------------------|
|-------------------------------------------------|
|-------------------------------------------------|
|--000-000-000-0-000-0-000-000-0-000-0-000-000----|x4
|--000-000-000-0-000-0-000-000-0-000-0-000-000----|
|--000-000-000-0-000-0-000-000-0-000-0-000-000----|


(4:16-4:40)
And Breakdown
|-------------------------------------------------|
|-------------------------------------------------|
|-------------------------------------------------|
|--111-111-111-1-111-1-111-111-1-111-1-111-111----|x4
|--000-000-000-0-000-0-000-000-0-000-0-000-000----|
|--111-111-111-1-111-1-111-111-1-111-1-111-111----|

Have any question hit me up on myspace or facebook.
www.myspace.com/codsterrrrr
www.facebook.com/codddyy
Tap to rate this tab
 
# A B C D E F G H I J K L M N O P Q R S T U V W X Y Z