Song name
# A B C D E F G H I J K L M N O P Q R S T U V W X Y Z

Marvin Berry - Earth Angel chords

Highlighted       Show chord diagrams
So you've watched the movie "Back to the Future" and thought it was hilarious when Marty 
J. Fox) plays the song using power chords rather than the traditional chords that bands 
in that time. Well this tab is how to play that song using the power chords.

Standard Tuning(EADGBE), listen to the song for strumming pattern.

  F5    A5   Bb5  C5
E|--------------------|
B|--------------------|
G|-----------3----5---|
D|-3----7----3----5---| x10
A|-3----7----1----3---|
E|-1----5-------------|


  F5    Bb5   F5
E|---------------|
B|---------------|
G|------3--------|
D|-3----3----3---|
A|-3----1----3---|
E|-1---------1---|

  A5
E|--------|
B|--------|
G|--------|
D|-777777-|
A|-777777-|
E|-555555-|

  Bb5  G5
E|----------|
B|----------|
G|----------|
D|-8----3---| X3
A|-8----3---|
E|-6----1---|

  A5    C5 C#5
E|-----------|
B|-----------|
G|------5--6-|
D|-7----5--6-|
A|-7----3--4-|
E|-5---------|


  F5    A5   Bb5  C5
E|--------------------|
B|--------------------|
G|-----------3----5---|
D|-3----7----3----5---| x4
A|-3----7----1----3---|
E|-1----5-------------|

Be sure to listen at the end when he decides to slow the change of the last two chords 
the song. Hope you enjoy it.
-Dday33
Tap to rate this tab
# A B C D E F G H I J K L M N O P Q R S T U V W X Y Z