Song name
# A B C D E F G H I J K L M N O P Q R S T U V W X Y Z

Marvin Gaye - I Heard It Through The Grapevine tab

***********************************************************************
(CAUTION THIS IS VERY VERY VERY VERY DIFFICULT TO PLAY
YOU MUST BE VERY ADVANCED ON THE GUITAR,
YOU REALLY HAVE TO BE VERY VRY VERY GOOD
LIKE ME TO PLAY THIS SONG)*********************************************

FINGERPICKED

--0-0-3--0-------0-0-3--2--0--|
--0-0-3--0-------0-0-3--2--0--|
------------------------------|
------------------------------|        REPEAT
------------------------------|
--0---0--0---0---0---0--0--0--|

--3-3--5-3-------3-3--5-5--3----------------|
--5-5--5-5-------5-5--5-5--5----------------|
--4-4--6-4-------4-4--6-6--4----------------|
--------------------------------------------|            REPEAT
--------------------------------------------|
--0----0-0---0---0----0----0----------------|

----0-3-0-3-0-------0-----------------0-0-----2-------------0-2-0-------0-0-|
--------------------0-----------------0-0-----0-------------------2---------|
--------------------0-----------------0-0-----2-----------------------------|
--------------------------------------------------------------------2---2---|
----------------------------------------------2---2---2---2-------0---0-----|
--0---0---0---0---0---0---0---0---0---0---0---------------------------------|

--12-10--7-5--3----0-0---------------------0-2-0-------------|
--12-10--8-7--5----0-0----------------5--------2-------------|
--------------4----0-0----------------6-6--------------------|
--------------------------------------6----------------------|
--------------------------------------4-4--4---0---0---0---0-|
--0--0---0-0--0---0----0---0---0---0-------------------------|

--6-5--3-5-0--3-0-3-0------------------5---5------------3-0-3-0-3-0-0--|
-----------------------8--5----------8---7-5------------------------2--|
-----------------------6--7----------------6---------------------------|
-----------------------5--6--------------------------------------------|
-----------------------7--7-----------------------------0---0---0---0--|
--6-5--3-5-0--3-0-3-0--5--0--0---0---0-0-0-0-0---0---0-----------------|

------------------5-5-5-5-5-5-5--0---3-0-3-0----------|
----------------------------------------------8--5----|
----------------------------------------------6--7----|
----------------------------------------------5--6----|
--0---0---0---0---0---0---0---0--0------------7--7----|
-------------------------------------3-0-3-0--5--0----|


------------------2-5-7---5---------0-3-0-3-0-0---|
----------------------------------------------2---|
------------------3-6-7---6-----------------------|
--------------------------------------------------|
----------------------------------0---0---0---0---|
--0---0---0---0---0---0---0---0-------------------|

---------5-5-5-5-5-5-5-5-0---3-0-3-0-------------------|
--------------------------------------8--5-------------|
--------------------------------------6--7-------------|
--------------------------------------5--6-------------|
-0---0---0---0---0---0---0------------7--7-------------|
-----------------------------3-0-3-0--5--0---0---0---0-|

------0------0-0-----0-0---0-----0-----0-0-----0-0---0-----|
---------0-0-----0-0-----0---0-0---0-0-----0-0-----0-------|
-----------------------------------------------------------|
-----------------------------------------------------------|
-----------------------------------------------------------|
--0---0--0---0---0---0---0---0---0-0---0---0---0---0-------|
FROM HERE START THE WHOLE SONG OVER
AND WHEN YOU WANT TO END IT,
PLAY THIS LAST PART OVER AND OVER WHILE SLOWLY FADING OUT THEN:

--0--
--0--
--0--
--2--
--2--
--0--
Tap to rate this tab
 
# A B C D E F G H I J K L M N O P Q R S T U V W X Y Z