Song name
# A B C D E F G H I J K L M N O P Q R S T U V W X Y Z

Marvin Gaye - Your Precious Love tab

Marvin Gaye
Your Precious Love
Tuning: Standard
Transcribed by Soch Hean


Intro:
|-----------------------------------|-----------------------------------|
|-----------------------------------|-----------------------------------|
|-----------------------------------|-----------------------------------|
|-5-3------5-3---------------3-5-3--|-5-3------5-3---------------3--3---|
|-----1--------5---1-3---5-3--------|-----1--------5---1-3---5-3--------|
|----------------3------------------|----------------3------------------|

Verse:
|-----------------------------------|-------------------------------|
|-----------------------------------|-------------------------------|
|-----------------------------------|-------------------------------|
|-5-3------5-3---------------3-5-3--|-5-3------5-3------------------|
|-----1--------5---1-3---5-3--------|-----1--------5---1-3---5-3----|
|----------------3------------------|----------------3-----------1--|

|-----------------------------------------------------------------------------|
|-----------------------------------------------------------------------------|
|-----------------------------------------------------------------------------|
|-3-5-3------5-3----------------3-------------5-3---------------3---3----3-1--|
|-------1--------5---1-3--5--6----------1---------5---1-3--3--5---------------|
|------------------3--------------1-1-3-------------3-------------1----1------|

Chorus:
|----------------------------------------------------------------------|
|----------------------------------------------------------------------|
|----------------------------------------------------------------------|
|------------------4--4-3----1--1----------------------------------1-3-|
|-4---4-3-1--1-------------1-------------4--4-3-1--1------4------------|
|---------------4-----------------4-6-4--------------4--4--------------|

Verse 2:
|-------------------------------|-------------------------------|
|-------------------------------|-------------------------------|
|-------------------------------|-------------------------------|
|------5-3---------------3-5-3--|-5-3------5-3------------------|
|-1--------5---1-3---5-3--------|-----1--------5---1-3---5-3----|
|------------3------------------|----------------3-----------1--|

|-----------------------------------------------------------------------------|
|-----------------------------------------------------------------------------|
|-----------------------------------------------------------------------------|
|-3-5-3------5-3----------------3-------------5-3---------------3---3----3-1--|
|-------1--------5---1-3--5--6----------1---------5---1-3--3--5---------------|
|------------------3--------------1-1-3-------------3-------------1----1------|

Chorus:
|----------------------------------------------------------------------|
|----------------------------------------------------------------------|
|----------------------------------------------------------------------|
|------------------4--4-3----1--1----------------------------------1-3-|
|-4---4-3-1--1-------------1-------------4--4-3-1--1------4------------|
|---------------4-----------------4-6-4--------------4--4--------------|
Tap to rate this tab
# A B C D E F G H I J K L M N O P Q R S T U V W X Y Z