Guitaretab - guitar tabs
Song name
# A B C D E F G H I J K L M N O P Q R S T U V W X Y Z

Mary Beats Jane - Blood And Oil tab

song: blood and oil
band: mary beats jane
album: mary beats jane

Tune to drop-d.


Guitar1 verse:                 Guitar2 verse:
e----------------  -------     e--------------  -------|
b-----8----8/10--  -------     b--------------  -------|
g-----7----7/9---  --4----     g--------------  -------|
d-4---5----5/7---  --2----     d-4---5--------  --2----|
a---4------------  -------     a---4---5-5/7--  --2----|
d----------------  -------     d--------------  --2----|

[ Tab from: http://www.guitaretab.com/m/mary-beats-jane/96001.html ]
Break: (palmmuted)
e---------------------------------|
b---------------------------------|
g-------3-3-3-------4-4-4-3-3-----|
d-4-4-4-3-3-3-4-4-4-4-4-4-3-3-4-4-|
a-4-4-4-1-1-1-4-4-4-2-2-2-1-1-4-4-|
d-4-4-4-------4-4-4-----------4-4-|

The riff:
e----------------------|
b----------------------|
g----------------------|
d-2h4-4-0-5--5-5-0-5h7-|
a-2h4-4-0-5--5-5-0-5h7-|
d-2h4-4-0-5--5-5-0-5h7-|

So far so good:
e-----
b-5---
g-4---
d-2--- Strum many times.
a-2---
d-2---

Fill kind of thing:
e------------|
b------------|
g------------|
d-4-3-2-1----|
a-4-3-2-1----|
d-4-3-2-1----|

Ending:
e-------------|
b-------------|
g-------------|
d-4-3-2-1-0-1-|
a-4-3-2-1-0-1-|
d-4-3-2-1-0-1-|

End on F#5.
Advertisement will be closed in 10 seconds