Song name
# A B C D E F G H I J K L M N O P Q R S T U V W X Y Z

Mary J Blige - Sweet Thing tab

Mary J. Blige
Sweet Thing
Transcribed by Soch H.
Tuning: EADGBE (Standard)

Intro: (x2)Riff 1
||-9-9-7-7--9---------------5-----------------|
||-9-9-7-7--9--5s7s5--5s7s5-5-5s=7s5---5s7----|
||-------------4s6s4--4s6s4---4s=6s4---4s6----|
||--------------------------------------------|
||--------------------------------------------|
||--------------------------------------------|

Riff 2 (x2)(starts at 1:58)
||-10-10-8-8--10---------------6--------------|
||-10-10-8-8--10--6s8s6--6s8s6-6-6s=8s6--6s8--|
||----------------5s7s5--5s7s5---5s=7s5--5s7--|
||--------------------------------------------|
||--------------------------------------------|
||--------------------------------------------|

Legend:
s - slide

Have fun!
Tap to rate this tab
# A B C D E F G H I J K L M N O P Q R S T U V W X Y Z