Song name
# A B C D E F G H I J K L M N O P Q R S T U V W X Y Z

Mary J Blige - Be Without You tab

#----------------------------------PLEASE NOTE---------------------------------#
#This file is the author's own work and represents their interpretation of the #
#song. You may only use this file for private study, scholarship, or research. #
#------------------------------------------------------------------------------##

                         MARY J. BLIGE - BE WITHOUT YOU

Transcribed by: Krisdan Kalinisan 
The E-Mail: krisdan@hotmail.com 
The Facebook URL: http://www.facebook.com/people/Krisdan-Kalinisan/767258437 
The Real Version: http://Krisdan.fileave.com/Mary J. Blige - Be Without You.mp3 


Gtr I (E A D G B E) - Capo on 5th

 4/4
  Gtr I
  H    Q  Q    S S S S +S  E S S S S S +S  E S   Q  E S S Q  E S S
|------------|-0-1-0-----------0-1-0-----------|-------------------|
|------------|-------3-(3)-1-3-------3-(3)-1-3-|-3--------3----1-3-|
|------------|---------------------------------|----0-4-5----0-----|
|-2----2--0--|---------------------------------|-------------------|
|-2----0-----|-0---------------0---------------|-------------------|
|-3----------|---------------------------------|-3--------3--------|


  S S S S +S  E S S S S S +S  E S   Q  E S S Q  E S S
|-0-1-0-----------0-1-0-----------|-------------------|
|-------3-(3)-1-3-------3-(3)-1-3-|-3--------3----1-3-|
|---------------------------------|----0-4-5----0-----|
|---------------------------------|-------------------|
|-0---------------0---------------|-------------------|
|---------------------------------|-3--------3--------|


  S S S S +S  E S S S S S +S  E S   Q  E S S Q  E S S
|-0-1-0-----------0-1-0-----------|-------------------|
|-------3-(3)-1-3-------3-(3)-1-3-|-3--------3----1-3-|
|---------------------------------|----0-4-5----0-----|
|---------------------------------|-------------------|
|-0---------------0---------------|-------------------|
|---------------------------------|-3--------3--------|


  S S S S +S  E S S S S S +S  E S   Q  E S S Q  S S S S
|-0-1-0-----------0-1-0-----------|---------------------|
|-------3-(3)-1-3-------3-(3)-1-3-|-3--------0----------|
|---------------------------------|----0-4-5------------|
|---------------------------------|----------0----------|
|-0---------------0---------------|---------------------|
|---------------------------------|-3-------------------|



Duration Legend
---------------
W - whole; H - half; Q - quarter; E - 8th; S - 16th; T - 32nd; X - 64th; a - acciaccatura
+ - note tied to previous; . - note dotted; .. - note double dotted
Uncapitalized letters represent notes that are staccato (1/2 duration)
Irregular groupings are notated above the duration line
Duration letters will always appear directly above the note/fret number it represents the
duration for.  Duration letters with no fret number below them represent rests.  Multi-
bar rests are notated in the form Wxn, where n is the number of bars to rest for.  Low
melody durations appear below the staff

Tablature Legend
----------------
 h   - hammer-on
 p   - pull-off
 b   - bend
 pb  - pre-bend
 r   - bend release (if no number after the r, then release immediately)
 /\  - slide into or out of (from/to "nowhere")
 s   - legato slide
 S   - shift slide
  - natural harmonic
[n]  - artificial harmonic
n(n) - tapped harmonic
 ~   - vibrato
 tr  - trill
 T   - tap
 TP  - trem. picking
 PM  - palm muting
\n/  - tremolo bar dip; n = amount to dip
 \n  - tremolo bar down
 n/  - tremolo bar up
/n\  - tremolo bar inverted dip
 =   - hold bend; also acts as connecting device for hammers/pulls
 <>  - volume swell (louder/softer)
 x   - on rhythm slash represents muted slash
 o   - on rhythm slash represents single note slash

Misc Legend
-----------
 |  - bar
||  - double bar
||o - repeat start
o|| - repeat end
*|  - double bar (ending)
 :  - bar (freetime)
 $  - Segno
 &  - Coda
Tempo markers -  = BPM(8/16=s8/s16), where s8 = swing 8ths, s16 = swing 16ths


***************************************************************************************
* Generated using Power Tab Editor by Brad Larsen - http://powertab.guitarnetwork.org *
***************************************************************************************
Tap to rate this tab
# A B C D E F G H I J K L M N O P Q R S T U V W X Y Z