Song name
# A B C D E F G H I J K L M N O P Q R S T U V W X Y Z

Mary Karlzen - Hide tab

this is my favorite song at the time:) have fun! ~Jackie Parker



after piano intro


E|-------------------------------------------------------------|
B|-------------------------------------------------------------|
G|-7-777--10-101010--15-1515151515----7-777--10-101010--5-55555|
D|-7-777--10-101010--15-1515151515----7-777--10-101010--5-55555|x2
A|-5-555--8---8-8-8--13-1313131313----5-555---8--8-8-8--3-33333|
D|-------------------------------------------------------------|

verse 1:

E|---------|
B|---------|
G|-77-7----|
D|-77-7----|
A|-55-5----|
D|---------|
waste away im crawling blind......

E|------------------------------------------------------------|
B|------------------------------------------------------------|
G|77-7------------------------------77-7----------------------|
D|77-7------------------------------77-7----------------------|x2
A|55-5------------------------------55-5----------------------|
D|------------------------------------------------------------|
for you just you.....            im caught in place...        
while I ignore...                what I cant erase...




chorus:

E|------------------------------------------------------------|
B|------------------------------------------------------------|
G|3-33333--7-77777--10-1010101010--12-1212121212--------------|
D|3-33333--7-77777--10-1010101010--12-1212121212--------------|
A|1-11111--5-55555---8--8-8-8-8-8--10-1010101010--------------|
D|------------------------------------------------------------|
I will run and hide 'till memories fade away....

chorus (continued)
E|------------------------------------------------------------|
B|-------------------12-1212121212----------------------------|
G|-3-33333--7-77777--12-1212121212--7-77777-------------------|
D|-3-33333--7-77777--10-1010101010--7-77777-------------------|
A|-1-11111--5-55555-----------------5-55555-------------------|
D|------------------------------------------------------------|
and I will leave behind a love so strong.

E|------------------------------------------------------------|
B|------------------------------------------------------------|
G|-7-777--10-101010--15-1515151515----7-777--10-101010--------|
D|-7-777--10-101010--15-1515151515----7-777--10-101010--------|x
A|-5-555--8---8-8-8--13-1313131313----5-555---8--8-8-8--------|
D|------------------------------------------------------------|


verse 2:

E|---------|
B|---------|
G|-77-7----|
D|-77-7----|
A|-55-5----|
D|---------|
close my eyes thease voices say...


E|------------------------------------------------------------|
B|------------------------------------------------------------|
G|77-7------------------------------77-7----------------------|
D|77-7------------------------------77-7----------------------|x2
A|55-5------------------------------55-5----------------------|
D|------------------------------------------------------------|
for you just you.....            time will always...        
while I throw away...            what I cant replace...

chorus:

E|------------------------------------------------------------|
B|------------------------------------------------------------|
G|3-33333--7-77777--10-1010101010--12-1212121212--------------|
D|3-33333--7-77777--10-1010101010--12-1212121212--------------|
A|1-11111--5-55555---8--8-8-8-8-8--10-1010101010--------------|
D|------------------------------------------------------------|
I will run and hide 'till memories fade away....

chorus (continued)
E|------------------------------------------------------------|
B|-------------------12-1212121212----------------------------|
G|-3-33333--7-77777--12-1212121212--7-77777-------------------| x2(from the
D|-3-33333--7-77777--10-1010101010--7-77777-------------------|  top of the 
A|-1-11111--5-55555-----------------5-55555-------------------|  chorus)
D|------------------------------------------------------------|
and I will leave behind a love so strong.

solo-like thingy

E|------------------------------------------------------------|
B|------------------------------------------------------------|
G|-8/777-8/777--8/777-8/777--xxxx--8/777-8/777--8/777-8/777---|
D|-8/777-8/777--8/777-8/777--xxxx--8/777-8/777--8/777-8/777---|
A|-6/555-6/555--6/555-6/555--xxxx--6/555-6/555--6/555-6/555---|
D|------------------------------------------------------------|


quietly and a bit slower.
E|------------------------------------------------------------|
B|------------------------------------------------------------|
G|3-33333-------5-55--7-77777-7-77777-------------------------|
D|3-33333-3-333-5-55--7-77777-7-77777--x8---------------------|
A|1-11111-3-333-3-33--5-55555-5-55555-------------------------|
D|--------1-111-----------------------------------------------|
7th time: i will run and hide......i will leave behind

chorus:

E|------------------------------------------------------------|
B|------------------------------------------------------------|
G|3-33333--7-77777--10-1010101010--12-1212121212--------------|
D|3-33333--7-77777--10-1010101010--12-1212121212--------------|
A|1-11111--5-55555---8--8-8-8-8-8--10-1010101010--------------|
D|------------------------------------------------------------|
I will run and hide 'till memories fade away....

chorus (continued)
E|------------------------------------------------------------|
B|-------------------12-1212121212----------------------------|
G|-3-33333--7-77777--12-1212121212--7-77777-------------------| 
D|-3-33333--7-77777--10-1010101010--7-77777-------------------|   
A|-1-11111--5-55555-----------------5-55555-------------------|  
D|------------------------------------------------------------|
and I will leave behind a love so strong!

outro:

E|-------------------------------------------------------------|
B|-------------------------------------------------------------|
G|7-77777-10-1010101010--7-77777--12-1212121212-----8/777-8/77-|
D|7-77777-10-1010101010--7-77777--12-1212121212-x6--8/777-8/77-|
A|5-55555--8--8-8-8-8-8--5-55555--10-1010101010-----6/555-6/55-|
D|-------------------------------------------------------------|


and then the piano takes it from there:) good luck!

Tap to rate this tab
 
# A B C D E F G H I J K L M N O P Q R S T U V W X Y Z