Song name
# A B C D E F G H I J K L M N O P Q R S T U V W X Y Z

Mary Timony - Valley Of One Thousand Perfumes tab

tuning (low to high) DADGAe


br = bend + release
/ or \ = slide
h = hammer-on
p = pull-off
w = whammy bar

verse riff (let the notes * ring)

e-------------------(0)-----------------(0)---------------|
A---4--7/9-7-4---2/4-5---0-0h5-5h7-5-(0)-4--0-0h4-4h5--4--|  slide up to next part
G---0*-------0*------7*------------------6*---------------|
D---------------------------------------------------------|
A---------------------------------------------------------|
D---------------------------------------------------------|

e--------------------------------------------------------------------------------|
A------9w--------9w--------9w--------9w-------16w-------16w-------16w-------16w--|
G------0w--------0w--------0w--------0w--------0w--------0w--------0w--------0w--|
D--11-11w----11-11w----11-11w----11-11w----17-17w----17-17w----17-17w----17-17w--|
A-(10)------(10)------(10)------(10)------(16)------(16)------(16)------(16)-----|
D--------------------------------------------------------------------------------|

note: the 1st part is slightly different each time (it follows the vocal melody)

chorus

e-------------------------------------------|
A-------------------------------------------|
G---9--9--11-11----111111----111111--11-11--|
D---7--7--9--9-----9-9-9-----9-9-9---9--9---|   X2
A---7--7--9--9-----9-9-9-----9-9-9---9--9---|
D---7--7--9--9-----9-9-9-----9-9-9---9--9---|


e-------------------------------------------|
A-------------------------------------------|
G---7--7--9-9-----9-9-9-----9-9-9---11---4--|
D---5--5--7-7-----7-7-7-----7-7-7---9----5--|   X2
A---5--5--7-7-----7-7-7-----7-7-7---9----5--|
D---5--5--7-7-----7-7-7-----7-7-7---9----5--|


e---------|
A---------|
G---7--7--|
D---5--5--|
A---5--5--|
D---5--5--|

post chorus (mute chords * after releasing bend)

e---------------------------------|
A---------------------------------|
G-----6br---6br---6br---4-4--7-7--|
D-----0-----0-----0-----5-5--7-7--|   X3 after 2nd & 3rd choruses
A-----x-----x-----x-----x-x--x-x--|
D---7-7---7-7---7-7-----5-5--7-7--|
      *     *     *

e--------------------------------|
A------------------------0--0h7--|
G-----6br---6br------9-----------|
D-----0-----0-----7-(7)----------|
A-----x-----x--------8-----------|
D---7-7---7-7--------------------|
      *     *

return to verse riff:

e-----------|
A---7\0-----|
G--------0*-|
D-----------|
A-----------|
D-----------|

she only plays * after 1st chorus
Tap to rate this tab
# A B C D E F G H I J K L M N O P Q R S T U V W X Y Z