Song name
# A B C D E F G H I J K L M N O P Q R S T U V W X Y Z

Maryzark - Kai tab

Song         : Kai
Band         : Maryzark
Tabbed By    : Brandon Philip Llapitan
E-Add/Cp No. : brandon_rakista@yahoo.com/09064856396
Tuning       : Flat Tuning


Note : Pakinggan nyong mabuti yung kanta para sa strumming.. di ko na nilagay ung mga 
part,kayo ng bahalang magsipra.

Intro :

Guitar 1
eb---------------------------|-----|
bb---------------------------|     |
gb---------------------------|     |
db-7----------4----------2-2-|     |
ab-7----------4----------2-2-|     |
Eb-5----------2----------0-0-|     |
                         . .       |
                                   |--2x except the palm muting(Em)
Guitar 2                           |
eb---------------------------|     |
bb---------------------------|     |
gb-9----------6--------------|     |
db-x----------x--------------|     |
ab-7----------4--------------|     |
Eb---------------------------|-----|

Then..
eb-------------------------------------------------------|
bb-------------------------------------------------------|
gb-------4~--------------------------1~-----1h2p1h2p1----|
db-----7--------9/11\9\7p6---------4------------------2~-|
ab---7--------7------------7~----4--------4--------------|
Eb-5--------5------------------2--------2----------------|
   . . .    . .                . . .    . .

eb-------------------------------------------------------|
bb----------------5--------------------------------------|
gb-------4~-----4---6~--6------------1~-----1h2p1h2p1----|
db-----7------------------6--------4------------------2~-|
ab---7--------7------------------4--------4--------------|
Eb-5--------5------------------2--------2----------------|
   . . .    . .                . . .    . .

Verse : 2x

eb-------------------------------------------------------|
bb-------------------------------------------------------|
gb-------4~--------------------------1~-----1h2p1h2p1----|
db-----7--------9/11\9\7p6---------4------------------2~-|
ab---7--------7------------7~----4--------4--------------|
Eb-5--------5------------------2--------2----------------|
   . . .    . .                . . .    . .

eb-------------------------------------------------------|
bb----------------5--------------------------------------|
gb-------4~-----4---6~--6------------1~-----1h2p1h2p1----|
db-----7------------------6--------4------------------2~-|
ab---7--------7------------------4--------4--------------|
Eb-5--------5------------------2--------2----------------|
   . . .    . .                . . .    . .

eb--------------------------|
bb--------------------------|
gb-4----------6----------7--|
db-4----------6----------7--|
ab-2----------4----------5--|
Eb--------------------------|
 |-----------2x-------------|

Chorus :

eb----------------------|
bb----------------------|
gb-------------------7--|
db-7-----4-----0-----7--|
ab-7-----4-----2-----5--|
Eb-5-----2-----2--------|
 |--------2x------------|

Then..
eb-------------|
bb-------------|
gb-------------|
db-7---------4-|
ab-7---------4-|
Eb-5---------2-|

Verse 2 :

eb-------------------------------------------------------|
bb-------------------------------------------------------|
gb-------4~--------------------------1~-----1h2p1h2p1----|
db-----7--------9/11\9\7p6---------4------------------2~-|
ab---7--------7------------7~----4--------4--------------|
Eb-5--------5------------------2--------2----------------|
   . . .    . .                . . .    . .

eb-------------------------------------------------------|
bb----------------5--------------------------------------|
gb-------4~-----4---6~--6------------1~-----1h2p1h2p1----|
db-----7------------------6--------4------------------2~-|
ab---7--------7------------------4--------4--------------|
Eb-5--------5------------------2--------2----------------|
   . . .    . .                . . .    . .

eb-------------------------|
bb-------------------------|
gb-----------------------7-|
db-4----------6----------7-|
ab-2----------4----------5-|
Eb-------------------------|
   .          .
 |-----------2x-----------|


Chorus 2 :

eb---------------------    -----|
bb---------------------    -----|
gb-------------------7-then-----|
db-7-----4-----0-----7-    -7~--|
ab-7-----4-----2-----5-    -7~--|
Eb-5-----2-----2-------    -5~--|
 |--------2x--------------------|

Guitar Legend :
. = Palm Mute
h = Hammer
p = Pull
~ = Let Ring/Vibrato
/ = Slide Up
\ = Slide Down
Tap to rate this tab
# A B C D E F G H I J K L M N O P Q R S T U V W X Y Z