Song name
# A B C D E F G H I J K L M N O P Q R S T U V W X Y Z

Masaaki Kishibe - A Bikini And Sunglasses tab

A bikini and sunglasses - Maasaki Kishibe


tuning-DADF#AD

some measures are longer than other cuz i didnt bother to put in bar lines
ok so DO NOT PAUSE between each section (unless i say so) or else it wont sound right
i havent finished the whole thing cuz its hard and it takes time
it looks confusing (well...it does to me) but it really isnt
just learn it slowly and speed up
i used sungha jung's version instead of the original cuz the bass is easier to hear
http://www.youtube.com/watch?v=4B-OJInuUW0
this is how i play it so if u hear something different then play it that way

h-hammeron
p-pull off

I am bored now so u can email me a song to tab at futice@yahoo.com
This will end at the end of May 2009
I will choose ONE to tabs out
I will only do fingerstyle tabs :)



|---------------|
|---------------|
|---------------|REPEAT X4
|---0-----0-----|
|-----0h2---2p0-|this bass line goes throughtout the
|-0-------------|first part of the song and parts of the end 
                (havnt finished end) 


|-4---------------------0--------------------------------|
|-------------------0h2---2p0-2---0----------------------|
|--------------------------------------------------------|
|---0-----0-------0-----0-------0-----0-------0-----0----|
|-----0h2---2p0-----0h2---2p0-----0h2---2p0-----0h2---2p0|
|-0-------------0-------------0-------------0------------|


|-4---------------------0---------0----------------------|
|-------------------0h2---2p0-2--------------------------|
|--------------------------------------------------------|
|---0-----0-------0-----0-------0-----0-------0-----0----|
|-----0h2---2p0-----0h2---2p0-----0h2---2p0-----0h2---2p0|
|-0-------------0-------------0-------------0------------|



bar your first finger on the 5th fret
|-5-------------5-------------|
|---------5-------------5-----|
|-----5h6---6p5-----5h6---6p5-|
|---5-------------5-----------|
|-----5h7---7p5-----5h7---7p5-|
|-5-------------5-------------|


no more bar
|--------------0--------------|
|9-------0-------------0------|
|----0h1---1p0-----0h1---1p0--|
|--0-------------0------------|
|----0h2---2p0-----0h2---2p0--|
|0-------------0--------------|


bar again
|-5-------------5-------------|
|---------5-------------5-----|
|-----5h6---6p5-----5h6---6p5-|
|---5-------------5-----------|
|-----5h7---7p5-----5h7---7p5-|
|-5-------------5-------------|


and...no bar
|7-------------0--------------|
|--------0-------------0------|
|----0h1---1p0-----0h1---1p0--|
|--0-------------0------------|
|----0h2---2p0-----0h2---2p0--|
|0-------------0--------------|


yay something different!
bar 2nd fret
|-2-------------2-------------|
|---------2-------------2-----|
|-----2h3---3p2-----2h3---3p2-|
|---2-------------2-----------|
|-----2h4---4p2-----2h4---4p2-|
|-2-------------2-------------|

now move the bar from 2nd fret to 7th fret
|-7----------------7-7|
|---------7------s-7-7|
|-----7h8---8p7--t-7-7|
|---7------------r-7-7|
|-----7h9---9p7--u-7-7|
|-7--------------m-7-7|

                      bar
|4h5h6-7--------------5---------5-|
|-----------------------------5---|
|--------------------------5------|
|--------0-----0--------5---------|
|----------0h2---2p0-------5------|
|------0--------------5-----------|

                                      bar
|---------0-----4h5h6-7---------------5-----7-5-|
|-9---8-7----p----------------------------------|
|---0---0----a----------------------------5-----|
|-------7----u----------0-----0---------5-------|
|-----0------s------------0h2---2p0-------5-----|
|-0-------0--e--------0---------------5---------|


|-2---------------
|-----------0h2/7-
|-----0-1-2-0h2/7-
|---2-------------
|-0---------------
|-----------------

this is :45-:58 i couldnt put 
the bass line and the melody together 
so i thought i would skip it for now
|???????????????|
|???????????????|
|???????????????|
|???????????????|
|???????????????|
|???????????????|


|-2/4-|
|-3/5-|
|-----|
|-----|i only did the slidey part cuz the rest is 
|-----|prettyeasy to figure out cuz its tabbed out at the top
|-0---|(watch to vid to get an idea!!!) 

ok so i did all this in ONE day. the tabbing and the figuring out
there are some parts after the slide but i thought it would take too 
long to figure out 

one day to tab out 1 minute...1/3 way done!!
Tap to rate this tab
# A B C D E F G H I J K L M N O P Q R S T U V W X Y Z