Song name
# A B C D E F G H I J K L M N O P Q R S T U V W X Y Z

Masaaki Kishibe - A Bikini And Sunglasses tab

A BIKINI AND SUNGLASSES

--Whole Song--
This song was tabbed by "the ninja leaf". The thing is it's 
not finished. I tabbed the interlude part (where he stopped) 
up to the outro. I don't own this whole tab. Please understand :)


PLEASE READ BEFORE STARTING!
  |---------------|
  |---------------|
 1|---------------|REPEAT X4
  |---0-----0-----|
  |-----0h2---2p0-|
  |-0-------------| 
                 

  |-4---------------------0--------------------------------|
  |-------------------0h2---2p0-2---0----------------------|
  |--------------------------------------------------------|
2 |---0-----0-------0-----0-------0-----0-------0-----0----|
  |-----0h2---2p0-----0h2---2p0-----0h2---2p0-----0h2---2p0|
  |-0-------------0-------------0-------------0------------|


  |-4---------------------0---------0----------------------|
3 |-------------------0h2---2p0-2--------------------------|
  |--------------------------------------------------------|
  |---0-----0-------0-----0-------0-----0-------0-----0----|
  |-----0h2---2p0-----0h2---2p0-----0h2---2p0-----0h2---2p0|
  |-0-------------0-------------0-------------0------------|


  |-5-------------5-------------|
  |---------5-------------5-----|
  |-----5h6---6p5-----5h6---6p5-|
4 |---5-------------5-----------|
  |-----5h7---7p5-----5h7---7p5-|
  |-5-------------5-------------|


  |--------------0--------------|
  |9-------0-------------0------|
  |----0h1---1p0-----0h1---1p0--|
  |--0-------------0------------|
5 |----0h2---2p0-----0h2---2p0--|
  |0-------------0--------------|


  |-5-------------5-------------|
  |---------5-------------5-----|
  |-----5h6---6p5-----5h6---6p5-|
6 |---5-------------5-----------|
  |-----5h7---7p5-----5h7---7p5-|
  |-5-------------5-------------|


  |7-------------0--------------|
  |--------0-------------0------|
  |----0h1---1p0-----0h1---1p0--|
7 |--0-------------0------------|
  |----0h2---2p0-----0h2---2p0--|
  |0-------------0--------------|


  |-2-------------2-------------|
  |---------2-------------2-----|
  |-----2h3---3p2-----2h3---3p2-| 
8 |---2-------------2-----------|
  |-----2h4---4p2-----2h4---4p2-|
  |-2-------------2-------------|


  |-7----------------7-7|
  |---------7------s-7-7|
  |-----7h8---8p7--t-7-7|
9 |---7------------r-7-7|
  |-----7h9---9p7--u-7-7|
  |-7--------------m-7-7|

                     
  |4h5h6-7--------------5---------5-|
  |-----------------------------5---|
  |--------------------------5------|
10|--------0-----0--------5---------|
  |----------0h2---2p0-------5------|
  |------0--------------5-----------|


  |---------0-----4h5h6-7---------------5-----7-5-|
  |-9---8-7----p----------------------------------|
  |---0---0----a----------------------------5-----|
11|-------7----u----------0-----0---------5-------|
  |-----0------s------------0h2---2p0-------5-----|
  |-0-------0--e--------0---------------5---------|


  |-2--------------------|
  |-----------0h2--0h2/7-|
12|-----0-1-2------0h2/7-|
  |---2------------------|
  |-0--------------------|
  |----------------------|


  |7-6-5-4---2-0-----0----------------0----5--5-|
  |----------------------4--------------------5-|
13|---------------0----------6---5------------4-|
  |--------0-----0-----0---0---0----0----0------|
  |---------------------------------------------|
  |------0-----------0-------------5----5-----5-|

  |7-5-4---2-0-----2-----------0-----------------|
  |------------------------0h2-------------------|
  |--------------------0h1-----------------------|
14|------0-----------2-------------0-----0-------|
  |------------2-1-0-----------------0h2---------|
  |----0-------------------------0---------3/4-0-|


  |-2/4--------------|
  |-3/5--------------|
  |------------------|
15|------0-----0-----|
  |--------0h2---2p0-|
  |-0----------------|


  |---------------|
  |---------------|
  |---------------|REPEAT X3
16|---0-----0-----|
  |-----0h2---2p0-|
  |-0-------------|


  |-2/4--------------|
  |-3/5--------------|
  |------------------|
17|------0-----0-----|
  |--------0h2---2p0-|
  |-0----------------| 


  |-----------------------0--------------------------------|
  |-------------------0h2---2p0-2---0----------------------|
  |--------------------------------------------------------|
18|---0-----0-------0-----0-------0-----0-------0-----0----|
  |-----0h2---2p0-----0h2---2p0-----0h2---2p0-----0h2---2p0|
  |-0-------------0-------------0-------------0------------|


  |-2/4--------------|
  |-3/5--------------|
  |------------------|
19|------0-----0-----|
  |--------0h2---2p0-|
  |-0----------------| 


  |-----------------------0---------0----------------------|
  |-------------------0h2---2p0-2--------------------------|
  |--------------------------------------------------------|
20|---0-----0-------0-----0-------0-----0-------0-----0----|
  |-----0h2---2p0-----0h2---2p0-----0h2---2p0-----0h2---2p0|
  |-0-------------0-------------0-------------0------------|



play parts 4,5,6,7,8.9,10

considered part 21 |
                   V
 
  |-------------------|
  |-9-----------------|
  |---0---------------|
  |---------0-2-4-----|
  |-----0h2-------4/5-|
  |-0-------------0---|

 
  |4h5h6-7--------------5------7-9--7---------7----|
  |---------------------------------------7h9---7--|
  |--------------------------5--------7h8----------|
22|--------0-----0--------5------------------------|
  |----------0h2---2p0-------5------0--------------|
  |------0--------------5--------------------------|

  |12-11-9-7--------------------------0-----5--5----|
  |------------9-7----5------------------------5----|
  |-----------------0---7---6---5--------------4----|
23|----------0-----0------0---0-----0-----0---------|
  |-------------------------------------------------|
  |--------0----------0-----------5-----5------5----|

play part 14

now can yall help me on the chord after this part?


==========================================================
he stopped there..

Interlude

  |0---0-0-2---0-2-2/5---4----------------------|
  |0---0-0-0-----0---------5~---0-p-------------|
  |0---0-------0----------------0-a-----0-------|
  |--0-------2---------0------0---u--0h2--2p0---|
  |2-------0----------------------s-------------|
  |----------------0~~----------0-e-------------|


                               Strm
                               Down 
  |0---0-0-2---0-2-1/7---7---5--4--2---0-------0---5-------|
  |0---0-0-0-----0-2/9---9---7--5--3---------4---0---4-7~--|
  |0---0-------0----------------6---------5------------7~--|
  |--0-------2---------0---0---------------------------5~--|
  |2-------0-------------------------------------------0~--|
  |----------------0~~----------0---2---4-5------4---------|


  |---------0---------------|
  |-------------------------|
  |-0h1---------------------|
  |-----------0-----0-------|
  |-2---3-4-----0h2---------|
  |---------0---------3/4-0-|

then continue to 17

  |-2/4--------------|
  |-3/5--------------|
  |------------------|
17|------0-----0-----|
  |--------0h2---2p0-|
  |-0----------------| 


  |-----------------------0--------------------------------|
  |-------------------0h2---2p0-2---0----------------------|
  |--------------------------------------------------------|
18|---0-----0-------0-----0-------0-----0-------0-----0----|
  |-----0h2---2p0-----0h2---2p0-----0h2---2p0-----0h2---2p0|
  |-0-------------0-------------0-------------0------------|


  |-2/4--------------|
  |-3/5--------------|
  |------------------|
19|------0-----0-----|
  |--------0h2---2p0-|
  |-0----------------| 


  |-----------------------0---------0----------------------|
  |-------------------0h2---2p0-2--------------------------|
  |--------------------------------------------------------|
20|---0-----0-------0-----0-------0-----0-------0-----0----|
  |-----0h2---2p0-----0h2---2p0-----0h2---2p0-----0h2---2p0|
  |-0-------------0-------------0-------------0------------|

play parts 4,5,6,7,8.9,10

then..
  |-------------------|
  |-9-----------------|
  |---0---------------|
21|---------0-2-4-----|
  |-----0h2-------4/5-|
  |-0-------------0---|

 
  |4h5h6-7--------------5------7-9--7---------7----|
  |---------------------------------------7h9---7--|
  |--------------------------5--------7h8----------|
22|--------0-----0--------5------------------------|
  |----------0h2---2p0-------5------0--------------|
  |------0--------------5--------------------------|

go back to 13

  |7-6-5-4---2-0-----0----------------0----5--5-|
  |----------------------4--------------------5-|
13|---------------0----------6---5------------4-|
  |--------0-----0-----0---0---0----0----0------|
  |---------------------------------------------|
  |------0-----------0-------------5----5-----5-|


  |7-5-4---2-0-----2-----------0---------------|
  |------------------------0h2-----------------|
  |--------------------0h1---------------------|
  |------0-----------2-------------0-----0-----|
  |------------2-1-0-----------------0h2---2p0-|
  |----0-------------------------0-------------|

OUTRO

  |--------------0--------------|
  |--------0-------------0------|
  |----0h1---1p0-----0h1---1p0--|
  |--0-------------0------------|
  |----0h2---2p0-----0h2---2p0--|
  |0-------------0--------------|

  |0-------------0----------------------0--|
  |--------0-------------0--------------0--|
  |----0h1---1p0-----0h1---1p0----------0--|
  |--0-------------0--------------------0--|
  |----0h2---2p0-----0h2---2p0----------0--|
  |0-------------0--------------0-------0--|

Tap to rate this tab
# A B C D E F G H I J K L M N O P Q R S T U V W X Y Z