Masaaki Kishibe - Thank You For tab

               Thank You For                 


                              Masaaki Kishibe
Guitar (Capo 5)



      ^                                    
      E  E  E  E  Q       Q.     E  E  E   
D||---4--5--7-----7----|--7------5--4--2--|
A||---0--------4-------|------------------|
G||*--0----------------|------------------|
D||*--0----------------|------------------|
A||--------------------|--4---------------|
D||--------------------|------------------|


  E  E  E  E  E  E   
--0-----------0--2--|
-----------0--------|
--------0-----------|
-----4--------------|
--2-----------------|
--------------------|


  E  S  S  S  S E  E  E   
--4--2h-4p-2p-0----0-----|
----------------4--------|
----------------------4--|
-------------------------|
--0----------------------|
-------------------------|


  E  E  E  E  Q       E  E  E  E  Q     
--------------0----|--------------0----|
-----------0-------|--0----------------|
--------4----------|-----------0-------|
-----0-------------|--------0----------|
-------------------|-----4-------------|
--5----------------|--4----------------|


  E  E  E  E  E  E     E  E  E  E  E  E     
--0--------------0--|--2-----------0--2---||
--------------4-----|-----------0---------||
-----------0--------|--------0-----------*||
--------4-----------|-----2--------------*||
-----2--------------|--0------------------||
--2-----------------|---------------------||


  E  E  E  E  E  E  E  E   
-----------0--2-----0-----|
--4-----4--------0--------|
-----4--------------------|
--------------------------|
--0-----------4--------0--|
--------------------0-----|


  E  E  E  E  H           E  E  E  E   
-----------------------|--------0--2--|
-----0-----0-----------|-----4--------|
--------0--------------|--------------|
--0-----------4--------|--L-----------|
-----------------------|--------------|
--------------0--------|--L-----------|


    ^                                    
    E  E  E  E  Q       Q.     E  E  E   
|---4--5--7-----7----|--7------5--4--2--|
|---0--------4-------|------------------|
|*--0----------------|------------------|
|*--0----------------|------------------|
|--------------------|--4---------------|
|--------------------|------------------|


  E  E  E  E  E  E   
--0-----------0--2--|
-----------0--------|
--------0-----------|
-----4--------------|
--2-----------------|
--------------------|


  E  S  S  S  S E  E  E   
--4--2h-4p-2p-0----0-----|
----------------4--------|
----------------------4--|
-------------------------|
--0----------------------|
-------------------------|


  E  E  E  E  Q       E  E  E  E  Q     
--------------0----|--------------0----|
-----------0-------|--0----------------|
--------4----------|-----------0-------|
-----0-------------|--------0----------|
-------------------|-----4-------------|
--5----------------|--4----------------|


  E  E  E  E  E  E     E  S  S E  E  Q       
--0--------------0--|--2--0h-2----0--2-----||
--------------4-----|----------4-----------||
-----------0--------|---------------------*||
--------4-----------|---------------------*||
-----2--------------|--0-------------------||
--2-----------------|----------------------||


  E  E  E  E  E  E  E  E   
-----------0--2-----0-----|
--4-----4--------0--------|
-----4--------------------|
--------------------------|
--0-----------4--------0--|
--------------------0-----|


  E  E  E  E  H         
-----------------------|
-----0-----0-----------|
--------0--------------|
--0-----------4--------|
-----------------------|
--------------0--------|


  E  E  E  E  E  E  E  E   
--0--0--0--9-----------9--|
--------------------0-----|
-----------------7--------|
--------------0-----------|
--------------------------|
-----------5--------------|


     ^                    
  E  E  Q    E  E  E  E   
--L--9--L----9--7--5--7--|
-------------------------|
-----6-------------------|
--------L----------------|
--------L----------------|
-----5----------------4--|


  E  E  E  E  E  E  E  E   
--------------0-----------|
--------0-----------------|
-----------6-----------0--|
-----4--------------4-----|
--4--------------2--------|
--------------------------|


  E  E  E  E  E  E  E  E   
-----0--2--4-----------5--|
--0-----------------2-----|
-----------------0--------|
--------------0-----------|
--------------------------|
-----------2--------------|


  E  E  E  E  E  E  E  E   
--L--2-----------2--4--0--|
--------------------------|
--------------3-----------|
-----------2--------------|
--------2--------------2--|
-----4--------------------|


  E  E  E  E  E  E  E  E   
-----------0--------------|
--------0-----4--3--------|
-----0-----------------0--|
--4-----------------2-----|
-----------------0--------|
--------------------------|


  E  E  E  E  E  E  E  E   
--0--0--0--9-----------9--|
--------------------0-----|
-----------------7--------|
--------------0-----------|
--------------------------|
-----0--4--5--------------|


  E  E  Q    E  E  E  E   
--L--9--L----9--7--5--7--|
-------------------------|
-----6-------------------|
--------L----------------|
--------L----------------|
-----5----------------4--|


  E  E  E  E  E  E  E  E   
--------------0-----------|
-----------4--------------|
--------2--------------0--|
-----4--------------4-----|
--4--------------2--------|
--------------------------|


  E  E  E  E  E  E  E  E   
-----0--2--4-----------5--|
--0-----------------2-----|
-----------------0--------|
--------------0-----------|
--------------------------|
-----------2--------------|


  E  E  Q    E  E  E  E   
--L-----L----0-----0--2--|
-----7--L-------4--------|
-----4-------------------|
-------------------------|
--------L-------------0--|
-----5-------------------|


  E  E  E  E  E  Q.      
-----------0--L---------|
--------0--------4------|
-----0------------------|
--2---------------------|
-----------------0------|
------------------------|


    E  E  E  E  E  E  Q     
|---0--2--4-----------2----|
|------------------0-------|
|*--------------0----------|
|*-----------0-------------|
|--------------------------|
|---------0----------------|


  E  E  E  E  E  E  E  E   
--0--------0--------------|
--------------3-----2-----|
--------0--------0--------|
-----0-----------------0--|
--------------------------|
--4-----------------5-----|


  E  E  Q    Q.     E   
-------------0------0--|
-----2--4----5---------|
--0--------------------|
-----------------------|
-----------------------|
-------------6---------|


  E  E  E  E  E  E  E  E   
-----0--------------------|
--4-----0--------------0--|
--------------------0-----|
-----------0--2--4--------|
--------0-----------------|
--------------------------|


  E  E  E  E  E  E  E  E   
--------------0--2--0-----|
-----0-----4--------------|
--------4-----------------|
--------------------------|
--0--------------------0--|
--------------------0-----|


  E  E  E  E  H           
------------------------||
-----0-----0------------||
--------0--------------*||
--0-----------4--------*||
------------------------||
------------------------||




Duration Legend
---------------
W - whole
H - half
Q - quarter
E - 8th
S - 16th
T - 32nd
X - 64th
. - note dotted
|-n-|  - n-tuplets


Tablature Legend
----------------
L - tied note
x - dead note
g - grace note
(n) - ghost note
> - accentuded note
NH - natural harmonic
AH - artificial harmonic
TH - tapped harmonic
SH - semi harmonic
PH - pitch harmonic
h - hammer on
p - pull off
b - bend
br - bendRelease
pb - preBend
pbr - preBendRelease
brb - bendReleaseBend
\n/ - tremolo bar dip
\n - tremolo bar dive
-/n - tremolo bar Release up
/n\ - tremolo bar inverted dip
/n - tremolo bar return
-\n - tremolo bar Release down
S - shift slide
s - legato slide
/ -  slide into from below or out of upwards
\ -  slide into from above or out of downwards
~ - vibrato
W - wide vibrato
tr - trill
TP - tremolo picking
T - tapping
S - slap
P - pop
< - fade in
^ - brush up
v - brush down
Tap to rate this tab
 
# A B C D E F G H I J K L M N O P Q R S T U V W X Y Z