Song name
# A B C D E F G H I J K L M N O P Q R S T U V W X Y Z

Masahiro Ando - Kiss You Goodbye tab

Kiss You Goodbye (Gran Turismo 4 OST)
Composition: Masahiro Ando
Performed by: Masahiro Ando & THE "BAD"
Tabs: sergio1o3 (http://www.youtube.com/sergio1o3)

Symbols:
h  -  hammer on
p  -  pull off
b  -  bend string up
r  -  release bend
/  -  slide up
\  -  slide down
() -  harmonic
x  -  mute


Rhythm Intro
D - C - Bm - C - D - Em - Bm - Am
(I use power chords in my cover video, so minor or major doesn't really matter)


Melody Section 1
E---------------------------------------|----8---7-6-|
B----8-10b12-10-8-7h8p7-----8---7-------|------------|
G-/9--------------------9p7---9---7-9-5-|-/5---5-----|
D---------------------------------------|------------|
A---------------------------------------|------------|
E---------------------------------------|------------|

E---------------------------------------|-------------|
B----8-10b12-10-8-7h8p7-----8---7-------|-7b8r7-------|
G-/9--------------------9p7---9---7-9-6-|-------8-----|
D---------------------------------------|---------9-7-|
A---------------------------------------|-------------|
E---------------------------------------|-------------|

E---------------------------------------|-----8-------12-|
B----8-10b12-10-8-7h8p7-----8---7-------|----------11----|
G-/9--------------------9p7---9---7-9-5-|----------------|
D---------------------------------------|-/10---10-------|
A---------------------------------------|----------------|
E---------------------------------------|----------------|

E-------------------------------------------------|
B----8-10b12-10-8-7h8p7-----8---------------------|
G-/9--------------------9p7---9-7-6-9-6-5---------|
D-----------------------------------------9-7-6-5-|
A-------------------------------------------------|
E-------------------------------------------------|


Bridge
E-------------/7-8-10-/12-10-7-------8-/12-10-15-/19-17-|
B-----------8------------------8-/10--------------------|
G----5-/9-7---------------------------------------------|
D-/7----------------------------------------------------|
A-------------------------------------------------------|
E-------------------------------------------------------|


Chorus (2x)
E-17-19-19h20-20-19-17-15-------15----------|
B-------------------------17-15----13\12----|
G----------------------------------------14-|
D-------------------------------------------|
A-------------------------------------------|
E-------------------------------------------|

E-17-19-19h20-20-19-17-15-------15----15-15h17-|
B-------------------------17-15----17----------|
G----------------------------------------------|
D----------------------------------------------|
A----------------------------------------------|
E----------------------------------------------|


Solo 1
E---------------------------------------------------------------|
B----12-12----12-x-12----12-12----12-12-12----12----------------|
G----12-14h15-14-x-14----12-14h15-14-12-14----12-14b15-12h14p12-|
D-14------------------14-------------------14-------------------|
A---------------------------------------------------------------|
E---------------------------------------------------------------|

   { hold bend }
E-------------------14-----------14-15-16-17-17h18p17p15-17-15-17-17b19-17b19-17b19-17b19-|
B-15b17-17-17r15-12----15-17-/17----------------------------------------------------------|
G-----------------------------------------------------------------------------------------|
D-----------------------------------------------------------------------------------------|
A-----------------------------------------------------------------------------------------|
E-----------------------------------------------------------------------------------------|


Rhythm during Keyboard Solo
Em - C - Em - A


Solo 2
E-10b11-10-10-10-10-10-10-10b11-10-10-10-|
B-10b11----10-8--10-8--10-10b11-10-10-10-|
G----------------------------------------|
D----------------------------------------|
A----------------------------------------|
E----------------------------------------|

  { I'm sure this isn't accurate, but it's my approach to it }
E-7------7-10-9-10-9-7-5-7-5-3-5-3-2---2-2p0---------------------------|
B---8-10-----------------------------3-------3-------------------------|
G----------------------------------------------4p2p0-2-2h4-0-2---0-2b4-|
D--------------------------------------------------------------2-------|
A----------------------------------------------------------------------|
E----------------------------------------------------------------------|


Last Chorus
E-17-19-19h20-20-19-17-15-------15----------|
B-------------------------17-15----13\12----|
G----------------------------------------14-|
D-------------------------------------------|
A-------------------------------------------|
E-------------------------------------------|

E-17-19-19h20-20-19-17-15-------15----15-15h17-|-17-15----15-------------------------|
B-------------------------17-15----17----------|-------17----17-15-17-15-13-15-13----|
G----------------------------------------------|----------------------------------14-|
D----------------------------------------------|-------------------------------------|
A----------------------------------------------|-------------------------------------|
E----------------------------------------------|-------------------------------------|

E-17-19-19h20-20-19-17-15-------15----------|
B-------------------------17-15----13\12----|
G----------------------------------------14-|
D-------------------------------------------|
A-------------------------------------------|
E-------------------------------------------|

E-17-19-19h20-20-19-17-15-------15----15-15h17-|
B-------------------------17-15----17----------|
G----------------------------------------------|
D----------------------------------------------|
A----------------------------------------------|
E----------------------------------------------|

E----15----15-17----15----20-15-|
B-17----17-------17----17-------|
G-------------------------------|
D-------------------------------|
A-------------------------------|
E-------------------------------|
Tap to rate this tab
# A B C D E F G H I J K L M N O P Q R S T U V W X Y Z