Song name
# A B C D E F G H I J K L M N O P Q R S T U V W X Y Z

Masappan - Siempre tab

INTRO

e|--------------------||
B|------0-------1-----||
G|--------------------||
D|----2-------2-------||X2
A|--0-------3---------||
E|--------------------||

Mientras estoy aqui
mientras sigo asi
viiviendo de esta forma
e|--------------------||
B|------0-------1-----||
G|--------------------||
D|----2-------2-------||X3
A|--0-------3---------||
E|--------------------||

sin besarte, sin tocarte, sin tu amor
e|-------------------------2---||
B|------0----------1-------4---||
G|---------------2-----4---4---||
D|----2--------2-------4---4---||X1
A|--0--------3-------------2---||
E|-------------------------2---||


 C       Em             C
nada de esto es para siempre
        Em         C
fotografias en mi mente
       G           B
devanecidas sin color.

INTRO

C  Em
C      Em         C
mientras estoy aqui
       Em       C
mientras vivo asi
       Em
ahogandome dentro
     Am            Em             B
de  sentimientos, mis recuerdos y tu amor

 C       Em
aaaaaa  aaaaa
 C       Em             C
nada de esto es para siempre
        Em         C
fotografias en mi mente
       G           B
devanecidas sin color.


 C       Em             C
nada de esto es para siempre
        Em         C
fotografias en mi mente
       G           B
devanecidas sin color.

 C       Em             C
nada de esto es para siempre
        Em         C
fotografias en mi mente
       G           B
devanecidas sin color.

C       Am     Em
aaaaaa  aaaaa aaaa
C       Am     G
aaaaaa  aaaaa aaaa

C  Em C Em C
Tap to rate this tab
# A B C D E F G H I J K L M N O P Q R S T U V W X Y Z