Song name
# A B C D E F G H I J K L M N O P Q R S T U V W X Y Z

Masateurastaja - Lanit tab

I Hope You Like It, It's My First Tab.

00:36-00:57 and 01:18-01:40
|----------------------------------------------|
|----------------------------------------------|
|----------------------------------------------|
|--7----2--2--3---2---2--7----2--2--3--3-2---2-|
|--7----2--2--3---2---2--7----2--2--3--3-2---2-|
|--5----0--0--1---0---0--5----0--0--1--1-0---0-|x2

Chorus: 00:57-01:18 and 01:40-02:01

|----------------------------|
|----------------------------|
|----------------------------|
|--7---7-3---3-10---10-5---5-|
|--7---7-3---3-10---10-5---5-|
|--5---5-1---1-8----8--3---3-|x4

Try to find the correct rythm yourself there, it's very easy :)


02:01--->

|----------------------------|
|----------------------------|
|----------------------------|
|--7---7-3---3-10---10-5---5-|
|--7---7-3---3-10---10-5---5-|
|--5---5-1---1-8----8--3---3-|x4
Tap to rate this tab
# A B C D E F G H I J K L M N O P Q R S T U V W X Y Z