Song name
# A B C D E F G H I J K L M N O P Q R S T U V W X Y Z

Masayoshi Takanaka - Seychelles tab

-------------------------------------------------------------------------------
			  Seychelles - Masayoshi Takanaka
-------------------------------------------------------------------------------
Tabbed by: dannav147
Email: bartonfink43@gmail.com

Tuning: Standard

No solo yet, I may or may not do it. Enjoy!

http://www.takanaka.com/

E|-------------------------------------------------------------------------------------------|
B|-------10/12-10----------------8/10-8-------------------------------8/10-8-----------------|
G|-7-8-9----------7-8-9-10--------------7b9-5-----5-7-----5-7/8--------------7b9-5-----5-7---|
D|-------------------------5-7-8--------------5-7-----5-7-------5-7-8--------------5-7-------|
A|-------------------------------------------------------------------------------------------|
E|-------------------------------------------------------------------------------------------|



E|------------------------------5/8------------------------------------------------------------|
B|-----------------------8/10-8------5------------------------8/10-8---------------------------|
G|-----5-7-5------------------------------5-7-----5-7/8--------------7b9-5-----5-7-----5-7-7b8-|
D|-5-7-------5-5-5-5-7-8--------------5-7-----5-7-------5-7-8--------------5-7-----5-7---------|
A|---------------------------------------------------------------------------------------------|
E|---------------------------------------------------------------------------------------------|



E|----------------------------------------------------------------------|
B|----------------------------------------------------------------------|
G|-7-5---5-7-------------5-7-7b8-7b8-7-5---5-7-------------5-7-7b8-7b8--|
D|-----7-----7-5/7-6-5-7-----------------7-----7-5/7-6-5-7--------------|
A|----------------------------------------------------------------------|
E|----------------------------------------------------------------------|


E|------------------------------------------------------------4--6/8--4--6--4----|
B|---------------------------6/8--6--------10--8-------------------------------4-|
G|--7--5-----5--7--2/4---------------9--7---------11--9--9\0---------------------|
D|--------7-------------5h7------------------------------------------------------|
A|-------------------------------------------------------------------------------|
E|-------------------------------------------------------------------------------|

E|------------------------------|
B|-----5--5-----5--5-----3--3---|
G|-----4--4-----4--4-----2--2---|
D|--5--5--5--5--5--5--3--3--3---|
A|------------------------------|
E|------------------------------|

E|-------------------------------------------------------------------------------------------|
B|-------------------------------------------------------------------------------------------|
G|--------4--5--4-----4--5--4-----4--5--4-----4--5--4---------------7--9--7------7--9--7-----|
D|--5--7-----------7-----------7-----------7-----------7--7--7--10-----------10--------------|
A|-------------------------------------------------------------------------------------------|
E|-------------------------------------------------------------------------------------------|



E|-------------------------------------------------------------------------------------------|
B|-------------------------------------------12--13--12------12--13--12------12--13--12------|
G|------7--9--7------7--9--7---------12--14--------------14--------------14--------------14--|
D|--10-----------10-----------10--9----------------------------------------------------------|
A|-------------------------------------------------------------------------------------------|
E|-------------------------------------------------------------------------------------------|



E|-----------------------------------------------------------------------------------------|
B|--12--13--12------------------15--17--15----------17--17--15--15--13--13--10--10--12/15--|
G|--------------14--14--14--17--------------17--14-----------------------------------------|
D|-----------------------------------------------------------------------------------------|
A|-----------------------------------------------------------------------------------------|
E|-----------------------------------------------------------------------------------------|

E|-----------------------------------------------15/17--15--------------------------------|
B|-----------10/12--10--------------------------------------15b17--13----------13--15-----|
G|--7--8--9-------------7--8--9--10--12--14--15------------------------12--14-------------|
D|----------------------------------------------------------------------------------------|
A|----------------------------------------------------------------------------------------|
E|----------------------------------------------------------------------------------------|


E|---------------------------------15/17--15--18/20-----------------------------------------|
B|----------13--15/16--------------------------------------------13--15----------13--15-----|
G|--12--14-------------12--14--15--------------------17--12--14----------12--14-------------|
D|------------------------------------------------------------------------------------------|
A|------------------------------------------------------------------------------------------|
E|------------------------------------------------------------------------------------------|



E|--------------------------15/17--15---------------------------------------------------|
B|-------------------------------------15b17--13----------13--15----------13--15/16-----|
G|--12--12--12--12--14--15------------------------12--14----------12--14----------------|
D|--------------------------------------------------------------------------------------|
A|--------------------------------------------------------------------------------------|
E|--------------------------------------------------------------------------------------|


E|--------------15/17--15--18/20--------------------------------------------------|
B|-------------------------------------------13--15---------13--15p13--15b17--15--|
G|--12--14--15--------------------17--12h14----------12h14------------------------|
D|--------------------------------------------------------------------------------|
A|--------------------------------------------------------------------------------|
E|--------------------------------------------------------------------------------|

B|----------------------------------------------------------------------|
G|-7-5---5-7-------------5-7-7b8-7b8-7-5---5-7-------------5-7-7b8-7b8--|
D|-----7-----7-5/7-6-5-7-----------------7-----7-5/7-6-5-7--------------|
A|----------------------------------------------------------------------|
E|----------------------------------------------------------------------|


E|------------------------------------------------------------4--6/8--4--6--4----|
B|---------------------------6/8--6--------10--8-------------------------------4-|
G|--7--5-----5--7--2/4---------------9--7---------11--9--9\0---------------------|
D|--------7-------------5h7------------------------------------------------------|
A|-------------------------------------------------------------------------------|
E|-------------------------------------------------------------------------------|

E|------------------------------|
B|-----5--5-----5--5-----3--3---|
G|-----4--4-----4--4-----2--2---|
D|--5--5--5--5--5--5--3--3--3---|
A|------------------------------|
E|------------------------------|

E|-------------------------------------------------------------------------------------------|
B|-------------------------------------------------------------------------------------------|
G|--------4--5--4-----4--5--4-----4--5--4-----4--5--4---------------7--9--7------7--9--7-----|
D|--5--7-----------7-----------7-----------7-----------7--7--7--10-----------10--------------|
A|-------------------------------------------------------------------------------------------|
E|-------------------------------------------------------------------------------------------|



E|------------------------------------------------------------------------------------------|
B|-------------------------12h13p12----------12--13--12------12--13--12------12--13--12-----|
G|------7--9--7------7--9------------12--14--------------14--------------14-----------------|
D|--10-----------10-------------------------------------------------------------------------|
A|------------------------------------------------------------------------------------------|
E|------------------------------------------------------------------------------------------|


E|---------------------------------------------------------------------------------------------|
B|------12--13--12------------------15--17--15----------17--17--15--15--13--13--10--10--13--12-|
G|--14--------------14--14--14--17--------------17--14-----------------------------------------|
D|---------------------------------------------------------------------------------------------|
A|---------------------------------------------------------------------------------------------|
E|---------------------------------------------------------------------------------------------|


************************************

| /   slide up
| \   slide down
| h   hammer-on
| p   pull-off
| ~   vibrato
| +   harmonic
| x   Mute note
| b   Bend
| pb  Pre-bend
| br  Bend release
| pbr Pre-bend release
| brb Bend release bend

************************************
Tap to rate this tab
# A B C D E F G H I J K L M N O P Q R S T U V W X Y Z