Song name
# A B C D E F G H I J K L M N O P Q R S T U V W X Y Z

Masayoshi Takanaka - Mirage Island tab

-------------------------------------------------------------------------------
			                     Mirage Island - Masayoshi Takanaka
-------------------------------------------------------------------------------
Tabbed by: dannav147
Email: bartonfink43@gmail.com

Tuning: Standard

Tab starts at around 0:18 on the album version. Enjoy!

E|-------------------------------------------------------------------------------------|
B|----------5/7--5----5/7--------------------------------------------5/7--5----5h7-----|
G|-------6--------------------------------------------------------6--------------------|
D|--5/7------------------------8/10--7--9--------------------5/7-----------------------|
A|-----------------------------------------9------10/12--------------------------------|
E|-------------------------------------------------------------------------------------|


E|---------------------------------------------------------|
B|---------------------------------------------------------|
G|---------------------------------------------------------|
D|--8/10--7--9----------------------7--9/11--7h9--7--------|
A|--------------9--10h12----7--7h9-------------------9--7--|
E|---------------------------------------------------------|


E|---------------------------------------------------------------------------------------------|
B|---------------------------------------------------------------------------------------------|
G|------------------------11--9----------------------------------------------------------------|
D|-------7--10b11--10b11---------10b11----------7--9/11--7h9----7-----7h9---------7--6/7--6/7--|
A|--7h9------------------------------------7h9---------------------9---------7h9---------------|
E|---------------------------------------------------------------------------------------------|


E|-----------------------------------------------------------|
B|--6/7--10--------------5/7--7\5----------------------------|
G|--------------------6--------------------------------------|
D|---------------5/7---------------8/10--7--9--4----5/7------|
A|-----------------------------------------------------------|
E|-----------------------------------------------------------|


E|-----------------------------------------------------------------------|
B|---------------5/7--5--7/10--5/7--3/5--6/7-----------------------------|
G|------------6----------------------------------------------------------|
D|--5/7--5/7--------------------------------------8/10--7--9--4--5/7-----|
A|-----------------------------------------------------------------------|
E|-----------------------------------------------------------------------|


E|--------------------------------------------------------------------------|
B|--------------------------------------------------------------------------|
G|----------------------------------------------------------11--9-----------|
D|-------7--9/11--7h9----7-----------------7--10b11--10b11---------10b11----|
A|--7h9---------------------9--7------7h9-----------------------------------|
E|--------------------------------------------------------------------------|


E|--------------------------------------------------------|
B|--------------------------------------------------------|
G|--------------------------------------------------------|
D|-------7--9/11--7h9--7-----7h9----------7--6/7--6/7-----|
A|--7h9-------------------9-----------7h9-----------------|
E|--------------------------------------------------------|


E|---------------------------------------------------------------------------------|
B|--------10-----------------------------------------------------------------------|
G|--9h11-----------------------4--4--5--5--6--6--7--7--8--8--9--9--10--10--11--12--|
D|----------------2/5--7-----------------------------------------------------------|
A|------------------------7--------------------------------------------------------|
E|---------------------------------------------------------------------------------|


E|--15/17--14\12----12/14--------------------------------------------------12/14--12--14/11--|
B|-------------------------11/13--10--12-------------------------------14--------------------|
G|----------------------------------------11--12/14------12/14--12/14------------------------|
D|-------------------------------------------------------------------------------------------|
A|-------------------------------------------------------------------------------------------|
E|-------------------------------------------------------------------------------------------|


E|------------------------------------------------------------------------|
B|--11/13--10--12-----------------------10--12/14--10h12----10------------|
G|-----------------11--12/14------9h11--------------------------11--9-----|
D|------------------------------------------------------------------------|
A|------------------------------------------------------------------------|


E|----------------------------------------------------------------------8/10--12--9------|
B|--------10--12--14------14--14--14\12--10h12----10--7-------------10---------------10--|
G|--9h11-------------------------------------------------9----9/11-----------------------|
D|---------------------------------------------------------------------------------------|
A|---------------------------------------------------------------------------------------|
E|---------------------------------------------------------------------------------------|

E|----------------------------------------------------------------------|
B|----------------------------------------------------------------------|
G|--4/6-------6--5--4--4--5--5--6--6--7--7--8--8--9--9--10--10--11--12--|
D|-------2/4------------------------------------------------------------|
A|----------------------------------------------------------------------|
E|----------------------------------------------------------------------|


E|------------------------------------------------------------------------------------------|
B|-------10----------------10-------------------------------------------10------------------|
G|--7/9---------------7/9---------------9/11/9\5------------9------7/9----------------------|
D|-----------7-----------------5----------------------8/11------------------7------7/10--7--|
A|------------------------------------------------------------------------------------------|
E|------------------------------------------------------------------------------------------|


E|----------------------------------------------------------------------------------|
B|--------------12/14--13--12--------------------------------------5/7--5----5h7\3--|
G|-----------------------------------------9--------------------6-------------------|
D|--5/7--7---------------------------8/10------------------5/7----------------------|
A|--------------------------------------------10/11---------------------------------|
E|----------------------------------------------------------------------------------|


E|--------------------------------------------------------9--14--12--14\9--12/14-----|
B|------------------------------------------------10--10-----------------------------|
G|-----------------------------------------------------------------------------------|
D|--------7--8/10--7--9--------------------------------------------------------------|
A|--7--9-----------------9--10/12------8p7p5-----------------------------------------|
E|-----------------------------------------------------------------------------------|


E|---------------------------------------------------------------------12/14--12--|
B|--11/13--10--12--------------------------------10--12/14--10h12--10-------------|
G|-----------------11--12h14\12---------9--9h11-----------------------------------|
D|--------------------------------------------------------------------------------|
A|--------------------------------------------------------------------------------|
E|--------------------------------------------------------------------------------|


E|-----------------------------------------12/14\12\9---------------------------------------|
B|-----------------10--12/14--12/14--------------------------10--12/14--10h12----10---------|
G|--9--9--9--9h11--------------------------------------9h11--------------------------11--9--|
D|------------------------------------------------------------------------------------------|
A|------------------------------------------------------------------------------------------|
E|------------------------------------------------------------------------------------------|


E|------------------10/12--10--7/9-------------------------------------------------------------|
B|--------10--10--------------------10--------10-----------------------------------------------|
G|--9h11--------------------------------9h11-------------6--4--5--6--7--8--9--10--9h11--12-11--|
D|--------------------------------------------------5/7----------------------------------------|
A|---------------------------------------------------------------------------------------------|
E|---------------------------------------------------------------------------------------------|


************************************

| /   slide up
| \   slide down
| h   hammer-on
| p   pull-off
| ~   vibrato
| +   harmonic
| x   Mute note
| b   Bend
| pb  Pre-bend
| br  Bend release
| pbr Pre-bend release
| brb Bend release bend

************************************
Tap to rate this tab
 
# A B C D E F G H I J K L M N O P Q R S T U V W X Y Z