Mashrou3 Leila - Fasateen tab

-----------------------------------------------------------------------------
			     Fasateen - Mashrou3 Leila
-----------------------------------------------------------------------------

Tabbed by: Electro

Tuning: Standard

Repeats almost through whole song
e|--------------------------------------slight strum-------|
B|----0-0--1p0------0-0--1p0------0-0---0-----let it ring--|
G|----0-0------0----0-0------0----0-0---0--------8-----8---|
D|--2-------------2---------------------0-------7------7---|
A|------------------------------3--------------6-------6---|
E|--------------------------------------------7------------|

base line in the background
e|-------------|
B|-------------|
G|-------------|
D|----2--------|
A|------3--2---|
E|-------------|

************************************
| p   pull-off
************************************

Mashrou3 Leila is a Lebanese band. check out their stuff on youtube. very cool music

Band is signed, they're big around here, have music videos on tv and have their albums 
in music stores
http://www.myspace.com/mashrou3leila
Tap to rate this tab
 
# A B C D E F G H I J K L M N O P Q R S T U V W X Y Z