Song name
# A B C D E F G H I J K L M N O P Q R S T U V W X Y Z

Mashrou3 Leila - Imm El Jacket tab

-----------------------------------------------------------------------------
                        Imm el Jacket - Mashrou' Leila
-----------------------------------------------------------------------------
Capo on 3rd Fret:
Chord progression: Dm --> F#m7 --> Am --> Em

Dm                  F#m7          Am            Em
e|---1---1--1------|----------------|-----------------|------|
B|---3---3--3------|--1--1--1--1-|--1--1--1--1-|--0--0--1--0-|
G|---2---2--2------|--2--2--2--2-|--2--2--2--2-|--0--0--0--0-|
D|-0---0--0---0-2-|-3--3--3--3--|-2--2--2--2--|-2--2--2--2---|
A|--------------------|----------------|----------------|----|
E|--------------------|----------------|----------------|----|

Strum the chords during the chorus.

Tap to rate this tab
# A B C D E F G H I J K L M N O P Q R S T U V W X Y Z