Song name
# A B C D E F G H I J K L M N O P Q R S T U V W X Y Z

Maskavo - Um Anjo Do Ceu chords

Highlighted       Show chord diagrams
Maskavo - Um Anjo do Céu

Tom: B
                (intro 2x) B  F#  E  B

(riff 2x)

E|-2------------------2--------------|
B|------4---2/4-2---------4---2/4-0--|
G|----4---4-------------4---4--------|
D|-----------------------------------|
A|-----------------------------------|
E|-----------------------------------|


         B
Um anjo do céu

Que trouxe pra mim
           C#m
É a mais bonita
          E      F#
A jóia perfeita
               B
Que é pra eu cuidar

Que é pra eu amar
          C#m
Gota cristalina
             E     F#
Tem toda inocência

(refrão)
 B           F#
Vem, Óh meu bem
           E
Não chore não
                B
Eu vou cantar pra você
 B           F#
Vem, Óh meu bem
           E
Não chore não
                B
Eu vou cantar pra você

(solo) B C#m E

(parte 1)

E|-------------------------------------|
B|------4-------4----------4---4-5-4---|
G|--4-4-4-4-4-4-4-4-4--4-4-4-4-4-6-4---|
D|--4-6---6-4-6---6-4--4-6---6---------|
A|-------------------------------------|
E|-------------------------------------|


(parte 2)

E|----------------------------|
B|--------4-5-5/7-5-4-5/7-5---|
G|--4-4-4-4-6-6/8-6-4-6/8-6---|
D|--6-4-6---------------------|
A|----------------------------|
E|----------------------------|


(parte 3)

E|-----------------------------------|
B|--4-5-4-5-5/7-5-7-7/9--5/75/7-4---|
G|--4-6-4-6-6/8-6-8-8/9--6/86/8-4---|
D|-----------------------------------|
A|-----------------------------------|
E|-----------------------------------|


B
Um anjo do céu

Que me escolheu
             C#m
Serei o seu porto
               E    F#
Guardião da pureza
              B
Que é pra eu cuidar

Que é pra eu amar
           C#m
Gota cristalina
             E     F#
Tem toda inocência

(refrão)

 B          F#
Vem, Óh meu bem
           E
Não chore não
                 B
Vou cantar pra você (4x)

 B          F#
Bem, Óh meu bem
           E
Não chore não......
                 B   F# E B (2x)
Vou cantar pra você

B F# E B (2x)

(refrão 4x)

(revisão - Leo Eymard)

----------------- Acordes -----------------
B = X 2 4 4 4 2
C#m = X 4 6 6 5 4
E = 0 2 2 1 0 0
F# = 2 4 4 3 2 2
Tap to rate this tab
 
# A B C D E F G H I J K L M N O P Q R S T U V W X Y Z