Song name
# A B C D E F G H I J K L M N O P Q R S T U V W X Y Z

Maskavo - Folhas Secas chords

Highlighted       Show chord diagrams
Maskavo - Folhas Secas

Tom: F#
                Intro: B  C#

        F#  C#  Bb  B  C# (2x)
E|--9/11-9~--9/11-9~--9/11-9/11-9~--9/11-9--9/11-9---------------------|
B|-------------------------------------------------11h12-11/9----9-----|
G|------------------------------------------------------------11---11~-|
D|---------------------------------------------------------------------|
A|---------------------------------------------------------------------|
E|---------------------------------------------------------------------|


F#                    C#
As folhas secas vão caindo
Bb                  B     C#
Eu posso ver pela janela
F#                 C#
Ganharam novo colorido
Bb               B      C#
A natureza se revela
F#                    C#
Vão enfeitar o seu caminho
Bb                     B
Quando passar agora à tarde
F#                     C#
Quero te ver andar sorrindo
Bb                B    C#
Com toda naturalidade

Refrão 2x:
F#        C#                 Bb
Te ver passar é me ver mais feliz
    B            C#
Sorriso me encantou
F#       C#                  Bb
O teu olhar não me deixa mentir
      B          C#
Só espero o teu amor

F#                          C#
Se olhar pra mim eu ganho o dia
Bb                   B    C#
Grande sorriso estampado
F#                      C#
Não pense que estou mentindo
Bb                  B   C#
No peito eu levo só bondade

Refrão 2x:
F#        C#                 Bb
Te ver passar é me ver mais feliz
    B            C#
Sorriso me encantou
F#       C#                  Bb
O teu olhar não me deixa mentir
      B          C#
Só espero o teu amor

Solo: F#  C#  Bb  B  C#

     F#           C#               Bb                B      C#          F#                   C#
E|---------------------------------------------------------------------------------------------|
B|--------------7~---------------11~----------------14-14-14/12-12p11-12-11-11h12p11-------14~-|
G|----------6h8-6~--6-6-8-8-8/10-11~-11-13-13-13/15-15-15-15/13-13p11-13-11----------13-11-----|
D|-8--6-6h8-6h8--------------------------------------------------------------------------------|
A|-9--6-6h9------------------------------------------------------------------------------------|
E|---------------------------------------------------------------------------------------------|


              Bb                 B   C#       (F#)
E|---------------------------------------------------------------------------------------------|
B|--------------11h12p11-----------11h12p11----------------------------------------------------|
G|----13/11--------------13-11-----11h13p11-11h13p11~~-----------------------------------------|
D|-11-------11~----------------13~----------11h13p11~~-----------------------------------------|
A|---------------------------------------------------------------------------------------------|
E|---------------------------------------------------------------------------------------------|


F#                     C#
Eu vou cruzar o seu caminho
Bb                    B      C#
Vou te dizer a frase certa
F#                     C#
E as folhas secas que cairam
Bb                    B    C#
Só nos verão na primavera

Refrão 3x:
F#        C#                 Bb
Te ver passar é me ver mais feliz
    B            C#
Sorriso me encantou
F#       C#                  Bb
O teu olhar não me deixa mentir
      B          C#
Só espero o teu amor

F#        C#      Bb
Te ver passar
    B            C#
Sorriso me encantou
F#       C#
O teu olhar
B      C#
  Só espero o teu amor

----------------- Acordes -----------------
B = X 2 4 4 4 2
Bb = X 1 3 3 3 1
C# = X 4 6 6 6 4
F# = 2 4 4 3 2 2
Tap to rate this tab
# A B C D E F G H I J K L M N O P Q R S T U V W X Y Z